» » »

We The Kings - All Again For You Tabs

Artists:  A B C D E F G H I J K L M N O P Q R S T U V W X Y Z # 

All Again For You Tabs

(ver. 1) Click to play this song!
We The Kings
 Rating:
4/5 (9 votes)

 All Again For You lessons Tabs too difficult? Try these video lessons and learn fast
 
                


Guitarists: Travis Clark & Hunter Thomsen

Tuning: Drop C

This is a very accurate tab! Can be played on either acoustic or electric guitar! 
I tabbed off an acoustic performance.

Intro/Verse (Travis)

d-----7-------7-------7-------7-------7-------7-------7-------7---|
A--9------9-------9-------9-------7-------7-------7-------7-------|
F----9--9---9---9---9---9---9---9---9---9---9---9---9---9---9-----| Repeat
C-----------------------------------------------------------------|
G-----------------------------------------------------------------|
C-----------------------------------------------------------------|

Verse (Hunter)

"I thought of you and the time we jumped the fence.."

d----------------------------------------------------|
A----------------------------------------------------|
F-------------------------------------11-------------|
C--9-(x16)--9-(x16)--6-(x16)--4(x12)--x--(x4)--------|
G--7--------6--------4--------2-------9--------------|
C----------------------------------------------------|

Pre-Chorus (Hunter & Travis)

"When your where mine.."

d--0---------0--------0-----|
A--0---------0--------0-----|
F--2---------4--------2-----|
C--2---------4--------2-----|
G--0---------2--------0-----|
C---------------------------|

Chorus (Travis) Ring out the high notes!

d--0--------0--------0--------0----------|
A--0--------0--------0--------0----------|
F--6--(x8)--2--(x8)--0--(x8)--4--(x8)----|(Repeat x4)
C--6--------2--------2--------4----------|
G--4--------0--------2--------2----------|
C--------------------2-------------------|

Chorus (Hunter)

d-----------------------------------------|
A-----------------------------------------|
F-----------------------------------------|(Repeat x4)
C--11--(x8)--7--(x8)--2--(x8)--9--(x8)----|
G--11--------7--------2--------9----------|
C--11--------7--------2--------9----------|

Verse 2 (Travis)
d-----7-------7-------7-------7-------7-------7-------7-------7---|
A--9------9-------9-------9-------7-------7-------7-------7-------|
F----9--9---9---9---9---9---9---9---9---9---9---9---9---9---9-----| Repeat
C-----------------------------------------------------------------|
G-----------------------------------------------------------------|
C-----------------------------------------------------------------|

Verse 2 (Hunter)

"Today dressed up.." (Figure out strumming) (Not Sure on how many times (x))


d-------------------------------------------------------------|
A-------------------------------------------------------------|
F----------------------------------------------------11-------|
C--9-(x10)-------9-(x10)-------6-(x10)-------4(x8)--x-(x4)----|
G--7-------7/9---6-------6/9---4-------4/6---2-------9--------|
C-------------------------------------------------------------|

"I let you take the wheel.."


d----------------------------------------------------|
A----------------------------------------------------|
F-------------------------------------11-------------|
C--9-(x16)--9-(x16)--6-(x16)--4(x12)--x--(x4)--------|
G--7--------6--------4--------2-------9--------------|
C----------------------------------------------------|

Pre-Chorus (Hunter & Travis)


d--0---------0--------0-----|
A--0---------0--------0-----|
F--2---------4--------2-----|
C--2---------4--------2-----|
G--0---------2--------0-----|
C---------------------------|

Chorus (Travis)


d--0--------0--------0--------0----------|
A--0--------0--------0--------0----------|
F--6--(x8)--2--(x8)--0--(x8)--4--(x8)----|(Repeat x4)
C--6--------2--------2--------4----------|
G--4--------0--------2--------2----------|
C--------------------2-------------------|

Chorus (Hunter)


d-----------------------------------------|
A-----------------------------------------|
F-----------------------------------------|(Repeat x4)
C--11--(x8)--7--(x8)--2--(x8)--9--(x8)----|
G--11--------7--------2--------9----------|
C--11--------7--------2--------9----------|

Bridge (Hunter & Travis) (Different strumming) Easy to figure out


d--0------------------------|
A--0------------------------|
F--2------------------------|(Repeat x2)
C--2---------2--------4-----|
G--0---------2--------4-----|
C------------2--------4-----|

Pre-Chorus (Hunter & Travis)

"I've got no where.."

d--0---------0-------------|
A--0---------0-------------|
F--2---------4-------------|
C--2---------4-------------|
G--0---------2-------------|
C--------------------------|


Chorus (Travis)


d--0--------0--------0--------0----------|
A--0--------0--------0--------0----------|
F--6--(x8)--2--(x8)--0--(x8)--4--(x8)----|(Repeat x4)
C--6--------2--------2--------4----------|
G--4--------0--------2--------2----------|
C--------------------2-------------------|


Chorus (Hunter)

d-----------------------------------------|
A-----------------------------------------|
F-----------------------------------------|(Repeat x2)
C--11--(x8)--7--(x8)--2--(x8)--9--(x8)----|
G--11--------7--------2--------9----------|
C--11--------7--------2--------9----------|

End Chorus (Hunter)

"You were everything.."

d---------------------------------------------------------------------|
A---------------------------------------------------------------------|
F---------------------------------------------------------------------|
C--7-(x8)--9-(x8)--11-(x8)--16-(x8)--7-(x8)--9-(x8)--11-(x8)--9-(x8)--|
G--7-------9-------11-------16-------7-------9-------11-------9-------|
C--7-------9-------11-------16-------7-------9-------11-------9-------|

End on: (Hunter & Travis)

d--0~---|
A--0~---|
F--0~---|
C--2~---|
G--2~---|
C--2~---|

Outro (Travis)

d-----7-------7-------7-------7-------7-------7-------7-------7---|
A--9------9-------9-------9-------7-------7-------7-------7-------|
F----9--9---9---9---9---9---9---9---9---9---9---9---9---9---9-----|
C-----------------------------------------------------------------|
G-----------------------------------------------------------------|
C-----------------------------------------------------------------|

or

d--0---|
A--0---|
F--2---|
C--2---|
G--0---|
C------|


Thank You! :) I hope you learned a lot! This is an awesome band and an awesome song. 
me with any questions!
            
Submit corrections


        All Again For You lessons Hard to play? Try these video lessons and learn fast All Again For You lessons
        
↑ Back to top | Tablatures and chords for acoustic guitar and electric guitar, ukulele, drums are parodies/interpretations of the original songs. You may use it for private study, scholarship, research or language learning purposes only