» » »

Wednesday 13 - From Here To The Hearse Tabs

Artists:  A B C D E F G H I J K L M N O P Q R S T U V W X Y Z # 

From Here To The Hearse Tabs

(ver. 1) Click to play this song!
Wednesday 13
 Rating:
4.3/5 (6 votes)


 From Here To The Hearse lessons Tabs too difficult? Try these video lessons and learn fast
 
                                                      From Here To The Hearse – Wednesday 13


This is a great song, by Wednesday 13 and although I’ve never tabbed a song before and 
only been playing for a year I think I’ve done pretty well!. But less talk more tab. Here 

Tuning: Drop C

Lead
Lead Riff One    0:00 – 0:18
D|-------10----------5----(do that a few times)-------------------|
A|--7-7------7--3-3----3—------------------------22222222---------|
F|----------------------------------------------------------------|
C|----------------------------------------------------------------|
G|----------------------------------------------------------------|
C|----------------------------------------------------------------|

Lead Riff Two               0:18 – 0:31
D|-14h15-14h15-14-----(3 times)---19--17—14-----------------------|
A|----------------12----------------------------------------------|
F|----------------------------------------------------------------|
C|----------------------------------------------------------------|
G|----------------------------------------------------------------|
C|----------------------------------------------------------------|

Lead Riff Two Again, 0:46 – 0:57

Lead Riff Three 0:59 – 1:11
D|-12-12-10-12-12-12-12-12-12-12-14----------------| x2
A|-------------------------------------------------|
F|-------------------------------------------------|
C|-------------------------------------------------|
G|-------------------------------------------------|
C|-------------------------------------------------|

Lead Riff Two, 1:12 – 1:25

Lead Riff One, 1:25 – 1:38

Lead Riff Two, 1:51 – 2:02

Lead Riff Three, 2:02 – 2:17

Lead Riff Two, 2:18 – 2:30

Lead Riff Four 2:31 – 2:43
D|-------------------------------------------------|
A|-------------------------------------------------|
F|-12-12-11-11-9-9-11---12-12-11-11-9-9------------|
C|--------------------------------------9----------|
G|-------------------------------------------------|
C|-------------------------------------------------|

Lead riff Four (continued)

D|---------------------------------------------------------------|
A|-20-20-19-19-17-17-19—22b--------------------------------------|
F|---------------------------------------------------------------|
C|-(I bend the 22 as high as possible-coz I only have 22 frets)--|
G|---------------------------------------------------------------|
C|---------------------------------------------------------------|


 Lead Riff Three 2:43 – 2:56

Lead Riff Two 2:56 – 3:10

Lead Riff One 3:10 – end


The rhythm part is essentially two riffs (just change around the number of times u play 
parts and what ever, its not rocket science)

D|-------------------------------------------------------|
A|-------------------------------------------------------|
F|-4-4---4-4---------------------------------------------|
C|-2-2---2-2----5-5-------------------------4-4-4--------|
G|-2-2---2-2----5-5—(how ever many times)---4-4-4--------|
C|--------------5-5-------------------------4-4-4--------|

D|-------------------------------------------------|
A|-------------------------------------------------|
F|-----------------4-4-4---------------------------|
C|-2-2-0-2-2-2-2-2-2-2-2---------------------------|
G|-2-2-0-2-2-2-2-2-2-2-2---------------------------|
C|-2-2-0-2-2-2-2-2---------------------------------|

Finish on
D|-------------------------------------------------|
A|-------------------------------------------------|
F|--4----------------------------------------------|
C|--2----------------------------------------------|
G|--2----------------------------------------------|
C|-------------------------------------------------|

And that’s It! Enjoy!
Sorry if its confusing
            
Submit corrections



        From Here To The Hearse lessons Hard to play? Try these video lessons and learn fast From Here To The Hearse lessons
        
↑ Back to top | Tablatures and chords for acoustic guitar and electric guitar, ukulele, drums are parodies/interpretations of the original songs. You may use it for private study, scholarship, research or language learning purposes only