» » »

We Are Scientists - Great Escape Tabs

Artists:  A B C D E F G H I J K L M N O P Q R S T U V W X Y Z # 

Great Escape Tabs

(ver. 2) Click to play this song!
We Are Scientists
 Rating:
4.5/5 (32 votes)


 Great Escape lessons Tabs too difficult? Try these video lessons and learn fast
 
                                     THE GREAT ESCAPE - We are scientists
-------------------------------------------------------------------------------

This Band is f**king awesome, Guitar pop at its best( they killed at leeds this year aswell)
Tuning:Standard
You can figure the Rhythm 
Mian Riff
e|--------------------------------------------------------------------------|
B|--------------------------------------------------------------------------|
G|-1111--99----1111-99-------------1111-99--1111----------------------------|
D|-1111--99----1111-99--11-11------1111-99--1111--11111111------------------|
A|-9-9---77----9-9--77--11-11------9-9--77--9-9---11111111------------------|
E|----------------------9--9----------------------9-9-9-9-------------------|
Chorus part One
e|--------------------------------------------------------------------------|
B|--------------------------------------------------------------------------|
G|--------------------------------------------------------------------------|
D|-77777777-77777777-4444444-4444444----------------------------------------|
A|-77777777-77777777-4444444-4444444----------------------------------------|
E|-55555555-55555555-2222222-2222222----------------------------------------|
Chorus part Two
e|--------------------------------------------------------------------------|
B|--------------------------------------------------------------------------|
G|--------------------------------------------------------------------------|
D|-99999999-9999999-11---1212121212121212---1212121212121212----------------|
A|-99999999-9999999-11---1212121212121212---1212121212121212----------------|
E|-77777777-7777777-9----1010101010101010---1010101010101010----------------|
Bridge One
e|--------------------------------------------------------------------------|
B|--------------------------------------------------------------------------|
G|----1111-1313--1414--1616--1818-------------------------------------------|
D|--------------------------------------------------------------------------|
A|----9-9--1111--1212--1414--1616-------------------------------------------|
E|--------------------------------------------------------------------------|
Bridge Two
e|--------------------------------------------------------------------------|
B|---7-5----7-5---7-5----7-5---7-5----5-------------------------------------|
G|-------7------7-----7------7-----7----------------------------------------|
D|--------------------------------------------------------------------------|
A|--------------------------------------------------------------------------|
E|--------------------------------------------------------------------------|
Brdge Three
e|-Trem pick these notes---17-19-21-19-21-19-17-19-21-19-B21-B21-B21--------|
B|--------------------------------------------------------------------------|
G|--------------------------------------------------------------------------|
D|--------------------------------------------------------------------------|
A|--------------------------------------------------------------------------|
E|--------------------------------------------------------------------------|

Structure
Main Riff
Chorus One
Chorus Two
Main Riff
Chorus One 
Chorus Two
Bridge One
Bridge Two
Bridge three
Main Riff
Chorus One
Chorus two
            
Submit corrections



        Great Escape lessons Hard to play? Try these video lessons and learn fast Great Escape lessons
        
↑ Back to top | Tablatures and chords for acoustic guitar and electric guitar, ukulele, drums are parodies/interpretations of the original songs. You may use it for private study, scholarship, research or language learning purposes only