» » »

We Are Scientists - Let's See It Bass

Artists:  A B C D E F G H I J K L M N O P Q R S T U V W X Y Z # 

Let's See It Bass

(ver. 1) Click to play this song!
We Are Scientists
 Rating:
4/5 (4 votes)
                This is my first tab, but i think ive got it pretty much down! You will have to put all 
pieces in the right places but other than that, this should be all the sections you need!

have fun!

and just remember...

'What Would We Are Scientists Do?'

Main Riff/Verse

G|----------7--------------------------7-----------------------------------------|
D|-----7h9----9-7-9-5-555-7-7-7----7h9---9-7-9-----------------------------------|
A|-7----------------------------5----------------------9-10-9--------------------|
E|---------------------------------------------8-888-----------------------------|


Pre-Chorus Build-Up (Play louder with each chord)

G|-----------------------|
D|-----------------------|
A|----3-3-3-3------------| (x4)
E|-----------------------|


Pre-Chorus

G|------------5-4------------5-4--------------5-4--------------5-4---------------|
D|----------------5---------------5---2----2-------5---2-2--2------5-------------|
A|----3----3----------3-3--3-----------------------------------------------------|
E|-------------------------------------------------------------------------------|


Chorus and Interlude

G|------------------------------|
D|------------------------------|
A|----0-2--0-2--0-2--0-2-3-2-0--|
E|------------------------------|

End On

G|----------------|
D|----------------|
A|----7/----------|
E|----------------|
            
Submit corrections

↑ Back to top | Tablatures and chords for acoustic guitar and electric guitar, ukulele, drums are parodies/interpretations of the original songs. You may use it for private study, scholarship, research or language learning purposes only