Home » W » We Are Monarchy »

We Are Monarchy - El Futuro Tabs

Artists:  A B C D E F G H I J K L M N O P Q R S T U V W X Y Z # 

El Futuro Tabs

(ver. 1) Click to play this song!
We Are Monarchy

Guitar 1: standard tuning.

--- Intro/Verse ---

Listen to the song and strum these power chords

     C#m   F#m  E

e|----x----x----x-----|
B|----x----x----x-----|
G|----6----11---9-----|  
D|----6----11---9-----|
A|----4----9----7-----|
E|----x----x----x-----|

--- Chorus ---
     
     C#m   E    Bm  f#m E
e|----x----x----x----x--x---|
B|----x----x----x----x--x---|
G|----6----9----x----7--9---|   x2 
D|----6----9----9----7--9---|
A|----4----7----9----9--7---|
E|----x----x----7----x--x---|

     C#m   Am    Bm  f#m E
e|----x----x----x----x--x---|
B|----x----x----x----x--x---|
G|----6----14---x----7--9---|   x1 
D|----6----14---9----7--9---|
A|----4----12---9----9--7---|
E|----x----x----7----x--x---|

     C#m   E    Bm  f#m E
e|----x----x----x----x-x---|
B|----x----x----x----x-x---|
G|----6----9----x----7-9---|   x1 
D|----6----9----9----7-9---|
A|----4----7----9----9-7---|
E|----x----x----7----x-x---|

     
--- Instrumental(HEY) ---

     C#m   F#m  E

e|----x----x----x-----|
B|----x----x----x-----|
G|----6----11---9-----|  
D|----6----11---9-----|
A|----4----9----7-----|
E|----x----x----x-----|

Then repeat Verse and Chorus 

--- Bridge ---
 Let it Ring| This Part is alternated with Palm Mute 
e|----------|---------------------------------|--------------------------------------------|
B|----------|----------------------7-----7----|--------------------------------------------|
G|-6--------|--x-x-9-x-x-9-x-9-x-9-- 9-9---9--|--x-x-12-x-x-12-x-12b-9-12-9-12-9-12-12b----|
D|-6--------|---------------------------------|--------------------------------------------|
A|-4--------|---------------------------------|--------------------------------------------|
E|----------|---------------------------------|--------------------------------------------|

e|------------------|--------------------------------------|
B|------------------|--------------------------------------|
G|--9-9-9-9-9-9-9-9-|--12-12-12-12-12-12-12b121212-12------|
D|------------------|--------------------------------------|
A|------------------|--------------------------------------|
E|------------------|--------------------------------------|

e|------------------|--------------------------------------|
B|------------------|--------------------------------------|
G|--9-9-9-9-9-9-9-9-|--12-12-12-12-77-88-99-1010-----------|
D|------------------|--------------------------------------|
A|------------------|--------------------------------------|
E|------------------|--------------------------------------|

--- Solo ---

e|------------------------------------------------------------------|
B|--9------------------------9--------------------------------------|
G|--11b-------9---------9-11-11b--11-9----9---------9---------9-11--|
D|-------9h11---11-9-11----------------11---11-9h11---11-9-11-------|
A|------------------------------------------------------------------|
E|------------------------------------------------------------------|

e|--------------------------------------------------------------------------------------------------------|
B|--------------------------------------------------------------------------------------------------------|
G|---------------------9--------------------------11------------------------9---------9h11-9---------9-11-|
D|-9h11-9h11-9h11-9h11---11---9h11-9h11-9h11-9h11----9--9h11-9h11-9h11-9h11---11--9h11-------11-9-11------|
A|--------------------------------------------------------------------------------------------------------|
E|--------------------------------------------------------------------------------------------------------|
 *with bend
e|----------------------------------------------------------------------|
B|-9-----------------------------------9--------------------------------|
G|-11b -*11-11*9-11-9-------9----9-11-11b *11-11-11-11-11-11*-9---------|
D|---------------------9h11---11--------------------------------11-9----|
A|----------------------------------------------------------------------|
E|----------------------------------------------------------------------|

e|--------------------------------------------------------------------------------------------------------|
B|--------------------------------------------------------------------------------------------------------|
G|---------------------9--------------------------11------------------------9---------9h11-9---------9-11-|
D|-9h11-9h11-9h11-9h11---11---9h11-9h11-9h11-9h11----9--9h11-9h11-9h11-9h11---11--9h11-------11-9-11------|
A|--------------------------------------------------------------------------------------------------------|
E|--------------------------------------------------------------------------------------------------------|

Back to Chorus 

Outro With C#m Chord

_____________________________________________________________________________________________________
Guitar 2: standard tuning.
__________________________________________________________________________

--- Intro ---

The whole intro and part of the verse is with speed picking

e|-------------------------------------------------|-------|     |-------|
B|-------------------------------------------------|-------|     |-------|
G|--11-11-11-11-11-9-11-11-11-11-11-11-11-11-11--9-|--14---| x16 |--13---| x16   
D|-------------------------------------------------|-------|     |-------|
A|-------------------------------------------------|-------|     |-------|
E|-------------------------------------------------|-------|     |-------|

--- Verse ---

e|------|     |------|     |------|
B|------|     |------|     |------|
G|--11--| x32 |--14--| x16 |--13--| x16
D|------|     |------|     |------|
A|------|     |------|     |------|
E|------|     |------|     |------|

--- Chorus ---

e|--------------|-------------|-------------|----------------|
B|--------------|-5-5-5-5-5-5-|-------------|-7-7-5-5-5-5-5--|
G|--6-6-6-6-6-6-|-------------|-4-4-4-4-4-4-|----------------|
D|--------------|-------------|-------------|----------------|
A|--------------|-------------|-------------|----------------|
E|--------------|-------------|-------------|----------------|

e|----------------------|----------------------|---------------------|-----------------|
B|------5-----------5---|------5-----------5---|-----7-----------7---|-7-7-7-7-5-5-5-5-|
G|--6-6---6-6-6-6-6---6-|--4-4---4-4-4-4-4---4-|-4-4---4-4-4-4-4---4-|-----------------|
D|----------------------|----------------------|---------------------|-----------------|
A|----------------------|----------------------|---------------------|-----------------|
E|----------------------|----------------------|---------------------|-----------------|

e|--------------|-------------|-------------|----------------|
B|--------------|-10-10-10-10-|-------------|-7-7-5-5-5-5-5--|
G|--6-6-6-6-6-6-|-------------|-4-4-4-4-4-4-|----------------|
D|--------------|-------------|-------------|----------------|
A|--------------|-------------|-------------|----------------|
E|--------------|-------------|-------------|----------------|

e|----------------------|----------------------|---------------------|-----------------|
B|------5-----------5---|------5-----------5---|-----7-----------7---|-7-7-7-7-5-5-5-5-|
G|--6-6---6-6-6-6-6---6-|--4-4---4-4-4-4-4---4-|-4-4---4-4-4-4-4---4-|-----------------|
D|----------------------|----------------------|---------------------|-----------------|
A|----------------------|----------------------|---------------------|-----------------|
E|----------------------|----------------------|---------------------|-----------------|

--- Bridge(Hey) ---

e|----------------------|----------------------------|-------|     |-------|
B|----------------------|----------------------------|-------|     |-------|
G|--11-11-11-11-11-9-11-|-11-11-11-11-11-11-11-11--9-|--14---| x16 |--13---| x16   
D|----------------------|----------------------------|-------|     |-------|
A|----------------------|----------------------------|-------|     |-------|
E|----------------------|----------------------------|-------|     |-------|

Repeat Verse and Chorus in order to the song

In the bridge only sounds the 1st Guitar

--- Solo ---
The 2nd guitar play this chords, listen to the song to get the right order of the strum

e|--x--|---x--|
B|--x--|---x--|
G|--11-|---x--|
D|--11-|---9--| 
A|--9--|---9--|
E|--x--|---7--|

Repeat Chorus 
            
Submit corrections

↑ Back to top | Tablatures and chords for acoustic guitar and electric guitar, ukulele, drums are parodies/interpretations of the original songs. You may use it for private study, scholarship, research or language learning purposes only