Home » W » We Are Harlot »

We Are Harlot - Never Turn Back Tabs

Artists:  A B C D E F G H I J K L M N O P Q R S T U V W X Y Z # 

Never Turn Back Tabs

(ver. 1) Click to play this song!
We Are Harlot
INTRO + VERSE

e|--------------------------------------------------------------------------------------|
B|--------------------------------------------------------------------------------------|
G|--1111111111111111-11h12p11-11-11-11--111111---9-9-9-9-9-9-9-9--7-7-7p6-6h7-7-7-------|
D|---9-9-9-9-9-9-9-9--9--------9-12-12---9-9-9---7-7-7-7-7-7-7-7--7-7-7-7-7-7-7-7-------|
A|--------------------------------------------------------------------------------------|
E|--------------------------------------------------------------------------------------|

e|--------------------------------------------------------------------------------------|
B|--------------------------------------------------------------------------------------|
G|--1111111111111111-11h12p11-11-11-11--111111---9-9-9-9-9-9-9-9--7-7-7p6-6h7-7-7-------|
D|---9-9-9-9-9-9-9-9--9--------9-12-12---9-9-9---7-7-7-7-7-7-7-7--7-7-7-7-7-7-7-7-------|
A|--------------------------------------------------------------------------------------|
E|--------------------------------------------------------------------------------------| x4

Rhythm behind this kicks in on the last two bars of the Verse

  (She shakes, she shakes ....)
e|----------------------------|   |----------------------|
B|--12-----10-----12------10--|   |----------------------|
G|--11-----9------11------9---|   |------Pickslide-------|
D|--9------7------9-------7---|   |------/////////-------|
A|--9------7------9-------7---|   |------/////////-------|
E|--9------7------9-------7---|x2 |------/////////-------|


PRE-CHORUS

(She's not an angel but...)

    G             A             B             A 
e|--------------------------------------------------------------------------------------------------------|
B|--------------------------------------------------------------------------------------------------------|
G|--7--7-7-7-7----9--9-9-9-9------------------9--9-9-9-9----7--7-7-7-7----9--9-9-9-9----------------------|
D|--5--5-5-5-5----7--7-7-7-7----9--9-9-9-9----7--7-7-7-7----5--5-5-5-5----7--7-7-7-7----2-----------------|
A|--5--5-5-5-5----7--7-7-7-7----9--9-9-9-9----7--7-7-7-7----5--5-5-5-5----7--7-7-7-7----2-2222222222222---|
E|--5--5-5-5-5----7--7-7-7-7----9--9-9-9-9----7--7-7-7-7----5--5-5-5-5----7--7-7-7-7----2-2222222222222---|
                                                                                     PM   .............

CHORUS

(Come inside, I don't mind ....)                     (It's hard to show you and...)

e|---------------------------------------------------|---------------------------------------------|
B|------8-----------10----------12-----------10------|------8----------10--------------------------|
G|--------7------------9-----------11-----------9----|--------7-----------9------------------------|
D|--5-5-----5---7-7------7--9-9-------9--7-7------7--|--5-5-----5--7-7------7--9-------------------|
A|--5-----------7-----------9------------7-----------|--5----------7-----------9-------------------|
E|--5-----------7-----------9------------7-----------|--5----------7-----------9-99999999999999----|

(No you never turn back .....)

e|----------------------|----------------------|
B|--9----10---12---10---|---9----------10------|
G|--7----9----11---9----|---7----------9-------|
D|--5----7----9----7----|---5----------7-------|
A|--5----7----9----7----|---5----------7-------|
E|--5----7----9----7----|---5----------7-------|

BACK TO INRO
VERSE
PRE-CHORUS
CHORUS

SOLO


CHORUS

End on a G and let ring

e|------------|
B|-----8------|
G|-----7------|
D|-----5------|
A|-----5------|
E|-----5------|            
Submit corrections

↑ Back to top | Tablatures and chords for acoustic guitar and electric guitar, ukulele, drums are parodies/interpretations of the original songs. You may use it for private study, scholarship, research or language learning purposes only