Home » W » We Are Harlot »

We Are Harlot - Someday Tabs

Artists:  A B C D E F G H I J K L M N O P Q R S T U V W X Y Z # 

Someday Tabs

(ver. 1) Click to play this song!
We Are Harlot
INTRO

Guitar I
Chords (strummed clean / acoustic)

     C         Em          D         Bm

e|---3---|  |---0---|  |---2---|  |---2---|       This chord pattern is repeated pretty much
B|---1---|  |---0---|  |---3---|  |---3---|       throughout.
G|---0---|  |---0---|  |---2---|  |---4---| 
D|---2---|  |---2---|  |---0---|  |---4---| 
A|---3---|  |---2---|  |-------|  |---2---| 
E|-------|  |---0---|  |-------|  |-------| x1

Guitar II (picked Clean)

e|------3------3---------0------0---------2-------2-------2------2----------|
B|------3------3---------0------0---------3-------3-------3------3----------|
G|--------------------------------------2-------2---------------------------|
D|----2------2---------2------2-------0-------0---------4------4------------|
A|--3------3-----------2------2------------------------2------2-------------|
E|-------------------0------0-----------------------------------------------| x1

Guitar I (light distortion)

e|----------------------------------------------|
B|--------------------------------33333333------|
G|--55555555------------77777777--44444444------|
D|--55555555------------77777777--44444444------|
A|--33333333--22222222--55555555--22222222------|
E|------------00000000--------------------------| x2

Guitar II (Clean)

e|------3------3---------0------0---------5------5---------2------2---------|
B|------3------3---------0------0---------5------5---------3------3---------|
G|--------------------------------------------------------------------------|
D|----5------5---------9------9---------7------7---------4------4-----------|
A|--3------3---------7------7---------5------5---------2------2-------------|
E|-------------------0------0-----------------------------------------------| x2


VERSE

Guitar II (picked clean)

e|--------------------------------------------------------------------------|
B|---------3~-------3----------------------3~-------3-----------------------|
G|------0--------------0~---------------0--------------0~-------------------|
D|------------------------5-/-7~--------------------------5-/-7~------------|
A|---3-------------------------------3--------------------------------------|
E|--------------------------------------------------------------------------| x1


Guitar I (clean)

e|------3------3---------0------0---------2-------2-------2------2----------|
B|------3------3---------0------0---------3-------3-------3------3----------|
G|--------------------------------------2-------2---------------------------|
D|----2------2---------2------2-------0-------0---------4------4------------|
A|--3------3-----------2------2------------------------2------2-------------|
E|-------------------0------0-----------------------------------------------| x2


Guitar II Picked clean)

e|---------------------------------------------------5-----5-------|
B|------3-----3--------3-----3--------3-----3------3-----3---------|
G|----0-----0--------0-----0--------0-----0------------------------|
D|--------------------------------0-----0--------4-----4-----------|
A|--3-----3--------------------------------------------------------|
E|-----------------0-----0-----------------------------------------| x2



CHORUS

Guitar I (distortion)

e|----------------------------------------------|
B|--------------------------------33333333------|
G|--55555555------------77777777--44444444------|
D|--55555555------------77777777--44444444------|
A|--33333333--22222222--55555555--22222222------|
E|------------00000000--------------------------| x4

Guitar II (Clean)

e|------3------3---------0------0---------5------5---------2------2---------|
B|------3------3---------0------0---------5------5---------3------3---------|
G|--------------------------------------------------------------------------|
D|----5------5---------9------9---------7------7---------4------4-----------|
A|--3------3---------7------7---------5------5---------2------2-------------|
E|-------------------0------0-----------------------------------------------| x4


REPEAT VERSE
REPEAT CHORUS


BRIDGE

Guitar I (distortion)

       F         C         Am        G
e|--11111111------------55555555--33333333-----|
B|--11111111--33333333--55555555--33333333-----|
G|-----x------55555555-----x---------x---------|
D|--33333333--55555555--77777777--55555555-----|
A|--33333333--33333333--77777777--55555555-----|
E|--11111111------------55555555--33333333-----| x2

Guitar II (clean strums)

     F          C         Am          G

e|---1---|  |---3---|  |---0---|  |---3-----3---3-----------|      
B|---1---|  |---1---|  |---1---|  |---3---3---3----3-/--1~--|       
G|---2---|  |---0---|  |---2---|  |---0---------------------| 
D|---3---|  |---2---|  |---2---|  |---0---------------------| 
A|-------|  |---3---|  |---0---|  |---2---------------------| 
E|-------|  |-------|  |-------|  |---3---------------------| x2


SOLO

Guitar I (distortion)

       F         C         Am        G
e|--11111111------------55555555--33333333-----|
B|--11111111--33333333--55555555--33333333-----|
G|-----x------55555555-----x---------x---------|
D|--33333333--55555555--77777777--55555555-----|
A|--33333333--33333333--77777777--55555555-----|
E|--11111111------------55555555--33333333-----| x2

Guitar II

e|------------------------------------|
B|--- Working out the solo section ---|
G|--- Will update ASAP ---------------|
D|------------------------------------|
A|--- Key of C -----------------------|
E|------------------------------------|


REPEAT CHORUS

OUTRO

Piano
Chords -- C  Em  D  Bm            
Submit corrections

↑ Back to top | Tablatures and chords for acoustic guitar and electric guitar, ukulele, drums are parodies/interpretations of the original songs. You may use it for private study, scholarship, research or language learning purposes only