Home » W » We Are Harlot »

We Are Harlot - The One Tabs

Artists:  A B C D E F G H I J K L M N O P Q R S T U V W X Y Z # 

The One Tabs

(ver. 1) Click to play this song!
We Are Harlot
e|-----------------------------------------------------|
b|-----------------------------------------------------|
g|-----------------------------------------------------|
d|-----------------------------------------------------|
a|---------------------------------------------755557--|s
E|----0-0-00-0-3-5-5-55b-3-0-0-0-00-0-3-5-5-5-5--------|

Repeat throughout verse

Chorus

e|-----------------------------|
b|-------8--------8-------8----|
g|---------11-------11------11-|
d|------------12-------12------|
a|-----------------------------|
E|-----------------------------|            
Submit corrections

↑ Back to top | Tablatures and chords for acoustic guitar and electric guitar, ukulele, drums are parodies/interpretations of the original songs. You may use it for private study, scholarship, research or language learning purposes only