Home » W » We Are Harlot »

We Are Harlot - Dancing On Nails Tabs

Artists:  A B C D E F G H I J K L M N O P Q R S T U V W X Y Z # 

Dancing On Nails Tabs

(ver. 1) Click to play this song!
We Are Harlot
Tuning: Standard

   Intro
e|---------------------------------------------------------------------------|
B|---------------------------------------------------------------------------|
G|------------------------------------------------5s7777-7777-7777-7777------|
D|------------------------------------------------5s7777-7777-7777-7777------|
A|--3s5555-5555-5555-5555--3s5555-5555-5555-5555--3s5555-5555-5555-5555------|
E|---------------------------------------------------------------------------|

e|---------------------------------------------------------------------------|
B|---------------------------------------------------------------------------|
G|--5555s7777-7777-7777-7777--5555s7777-7777-7777-7777--5555s7777-7----------|
D|--5555s7777-7777-7777-7777--5555s7777-7777-7777-7777--5555s7777-7----------|
A|--3333s5555-5555-5555-5555--3333s5555-5555-5555-5555--3333s5555-5----------|
E|---------------------------------------------------------------------------|
   Verse
e|-----------------|    e|--2222----------|    e|--mmmmmmmmmmmmmm--|
B|-----------------|    B|--3333----------|    B|--mmmmmmmmmmmmmm--|
G|--5555-----------|    G|--2222----------|    G|--mmmmmmmmmmmmmm--|
D|--5555-----------| x4 D|--0000----------| x4 D|--mmmmmmmmmmmmmm--|
A|--3333-7-5-9-7---|    A|-------7-5-9-7--|    A|--mmmmmmmmmmmmmm--|
E|-------7-5-9-7---|    E|-------7-5-9-7--|    E|--mmmmmmmmmmmmmm--|
    "I saw..."            "You got me sick..."
   Chorus
e|---------------------------------------------------------------------------|
B|---------------------------------------------------------------------------|
G|--5s7777-7777-7777-7777--5555s7777-7777-7777-7777--------------------------|
D|--5s7777-7777-7777-7777--5555s7777-7777-7777-7777--------------------------|
A|--3s5555-5555-5555-5555--3333s5555-5555-5555-5555--------------------------|
E|---------------------------------------------------------------------------|
      "You got something,       Worth Exploring."     
e|---------------------------------------------------------------------------|
B|---------------------------------------------------------------------------|
G|--5555s7777-7777-7777-7777--5555s7777-7777-7-------------------------------|
D|--5555s7777-7777-7777-7777--5555s7777-7777-7-------------------------------|
A|--3333s5555-5555-5555-5555--3333s5555-5555-5-------------------------------|
E|---------------------------------------------------------------------------|
        "I might be crazy,  You got          on"
   Verse
   Verse
e|-----------------------|    e|--2222----------|    e|--mmmmmmmmmmmmmm--|
B|-----------------------|    B|--3333----------|    B|--mmmmmmmmmmmmmm--|
G|--------5555-----------|    G|--2222----------|    G|--mmmmmmmmmmmmmm--|
D|--------5555-----------| x4 D|--0000----------| x4 D|--mmmmmmmmmmmmmm--|
A|--------3333-7-5-9-7---|    A|-------7-5-9-7--|    A|--mmmmmmmmmmmmmm--|
E|-------------7-5-9-7---|    E|-------7-5-9-7--|    E|--mmmmmmmmmmmmmm--|
   "Nails, Infatuated..."        "Theres no..."
   Chorus
e|---------------------------------------------------------------------------|
B|---------------------------------------------------------------------------|
G|--5s7777-7777-7777-7777--5555s7777-7777-7777-7777--------------------------|
D|--5s7777-7777-7777-7777--5555s7777-7777-7777-7777--------------------------|
A|--3s5555-5555-5555-5555--3333s5555-5555-5555-5555--------------------------|
E|---------------------------------------------------------------------------|
      "You got something,       Worth Exploring."     
e|---------------------------------------------------------------------------|
B|---------------------------------------------------------------------------|
G|--5555s7777-7777-7777-7777--5555s7777-7777-7777-7777-----------------------|
D|--5555s7777-7777-7777-7777--5555s7777-7777-7777-7777-----------------------|
A|--3333s5555-5555-5555-5555--3333s5555-5555-5555-5555-----------------------|
E|---------------------------------------------------------------------------|
       "I might be crazy,     You got             nails"
   Bridge
e|---------------------------------------------------------------------------|
B|---------------------------------------------------------------------------|
G|--5555s7s9999-9999-9999-9999-7777s9999-9999-9999-9999----------------------|
D|--5555s7s9999-9999-9999-9999-7777s9999-9999-9999-9999----------------------|
A|--3333s5s7777-7777-7777-7777-5555s7777s7777s7777s7777----------------------|
E|---------------------------------------------------------------------------|
          "I like the way..."      "With every beat..."
e|---------------------------------------------------------------------------|
B|---------------------------------------------------------------------------|
G|--7777s9999-9999-9999-9999-7777s9999-9999-9999-9999------------------------|
D|--7777s9999-9999-9999-9999-7777s9999-9999-9999-9999------------------------|
A|--5555s7777s7777s7777s7777-5555s7777s7777s7777s7777------------------------|
E|---------------------------------------------------------------------------|

e|---------------------------------------------------------------------------|
B|---------------------------------------------------------------------------|
G|--9999s7777-------------9999s7777---------5555s7-77-77-77--5555s7-77-77-77-|
D|--9999s7777-------------9999s7777---------5555s7-77-77-77--5555s7-77-77-77-|
A|--7777s5555-9--7-9--7-9-7777s5555-9--7-5--3333s5-55-55-55--3333s5-55-55-55-|
E|------------9--7-9--7-9-----------9--7-5-----------------------------------|

e|---------------------------------------------------------------------------|
B|---------------------------------------------------------------------------|
G|---------------------------------------------------------------------------|
D|---------------------------------------------------------------------------|
A|---------------------------------------------------------------------------|
E|---------------------------------------------------------------------------|
   Chorus
e|---------------------------------------------------------------------------|
B|---------------------------------------------------------------------------|
G|--5s7777-7777-7777-7777--5555s7777-7777-7777-7777--------------------------|
D|--5s7777-7777-7777-7777--5555s7777-7777-7777-7777--------------------------|
A|--3s5555-5555-5555-5555--3333s5555-5555-5555-5555--------------------------|
E|---------------------------------------------------------------------------|
      "You got something,       Worth Exploring."     
e|---------------------------------------------------------------------------|
B|---------------------------------------------------------------------------|
G|--5555s7777-7777-7777-7777--5555s7777-7777-7777-7777-----------------------|
D|--5555s7777-7777-7777-7777--5555s7777-7777-7777-7777-----------------------|
A|--3333s5555-5555-5555-5555--3333s5555-5555-5555-5555-----------------------|
E|---------------------------------------------------------------------------|
       "I might be crazy,     You got             nails"
e|---------------------------------------------------------------------------|
B|---------------------------------------------------------------------------|
G|--5s7777-7777-7777-7777--5555s7777-7777-7777-7777--------------------------|
D|--5s7777-7777-7777-7777--5555s7777-7777-7777-7777--------------------------|
A|--3s5555-5555-5555-5555--3333s5555-5555-5555-5555--------------------------|
E|---------------------------------------------------------------------------|
      "You got something,       Worth Exploring."     
e|---------------------------------------------------------------------------|
B|---------------------------------------------------------------------------|
G|--5555s7777-7777-7777-7777--5555s7777-7777-7-------------------------------|
D|--5555s7777-7777-7777-7777--5555s7777-7777-7-------------------------------|
A|--3333s5555-5555-5555-5555--3333s5555-5555-5-------------------------------|
E|---------------------------------------------------------------------------|
       "I might be crazy,     You got             nails"

Ending: D  C  G  D
            
Submit corrections

↑ Back to top | Tablatures and chords for acoustic guitar and electric guitar, ukulele, drums are parodies/interpretations of the original songs. You may use it for private study, scholarship, research or language learning purposes only