» » »

Weakerthans - Virtute The Cat Explains Her Departure Tabs

Artists:  A B C D E F G H I J K L M N O P Q R S T U V W X Y Z # 

Virtute The Cat Explains Her Departure Tabs

(ver. 1) Click to play this song!
Weakerthans
 Rating:
4.3/5 (20 votes)

 Virtute The Cat Explains Her Departure lessons Tabs too difficult? Try these video lessons and learn fast
 
                (With no capo)

e------------------------------------------------------6~|
b----------6h9-6-------------6h9-6------------6h9-6----6~|
G-6-8--6-8-------8--6-8--6-8-------8--6-8--6-8------8--6~|
D------------------------------------------------------8~|
A------------------------------------------------------8~|
E------------------------------------------------------6~|

e--------9------------9-----------6~|
b-11~--11--11-11~~~9~9--11-9~---9-6~|
G-----------------------------10--6~|
D---------------------------------8~|
A---------------------------------8~|
E---------------------------------6~|

e----------------------------|
b----6-7-9~-6-7-9~-9~-7p6----| (x2)
G-6-8---------------------6~-|
D----------------------------|
A----------------------------|
E----------------------------|

End with: (capo 1)
F-F--F-F---C~            
Submit corrections


        Virtute The Cat Explains Her Departure lessons Hard to play? Try these video lessons and learn fast Virtute The Cat Explains Her Departure lessons
        
↑ Back to top | Tablatures and chords for acoustic guitar and electric guitar, ukulele, drums are parodies/interpretations of the original songs. You may use it for private study, scholarship, research or language learning purposes only