Home » W » Warpaint »

Warpaint - Keep It Healthy Bass

Artists:  A B C D E F G H I J K L M N O P Q R S T U V W X Y Z # 

Keep It Healthy Bass

(ver. 1) Click to play this song!
Warpaint
Tuning: normal
Intro
G|---------------------------------|
D|-----------5--------5-7----------|
A|-------5---------------5---------|
E|-7-7-7---5---7-7-7-------7-7-7-5-| (2x)

G|-------------------------------------------------|
D|-----------5-------5-7-------------5-------5-7---|
A|-------5---------------5-------5---------------5-|
E|-7-7-7---5---7-7-7-------7-7-7---5---7-7-7-------| (2x)

G|---------------------------------|
D|-----------5-------5-7-----------|
A|-------5---------------5---------|
E|-7-7-7---5---7-7-7-------7-7-7-5-|(2x)

G|-------------------------------------------------|
D|-----------5-------5-7-------------5-------5-7---|
A|-------5---------------5-------5---------------5-|
E|-7-7-7---5---7-7-7-------7-7-7---5---7-7-7-------| (2x)

G|-----------------------|
D|---------------------5-|
A|----------------5------|
E|-7--7-7--7-7--7---5----| (5x)

G|---------------------------------|
D|-----------5-------5-7-----------|
A|-------5---------------5---------|
E|-7-7-7---5---7-7-7-------7-7-7-5-|

G|-------------------------------------------------|
D|-----------5-------5-7-------------5-------5-7---|
A|-------5---------------5-------5---------------5-|
E|-7-7-7---5---7-7-7-------7-7-7---5---7-7-7-------| (2x)

G|-----------------------------------------------------------------|
D|-----------5-------5-7---------------------5-------5-7-----------|
A|-------5---------------5---------------5---------------5---------|
E|-7-7-7---5---7-7-7-------7-7-7-5-7-7-7---5---7-7-7-------7-7-7-5-|
            
Submit corrections

↑ Back to top | Tablatures and chords for acoustic guitar and electric guitar, ukulele, drums are parodies/interpretations of the original songs. You may use it for private study, scholarship, research or language learning purposes only