Home » W » Wanda »

Wanda - Stehengelassene Weinflaschen Chords

Artists:  A B C D E F G H I J K L M N O P Q R S T U V W X Y Z # 

Stehengelassene Weinflaschen Chords

(ver. 1) Click to play this song!
Wanda
A
Gibst uns am Tag
              Am
Gibst uns bei Nacht
D
Leidenschaft heist Leiden
       C
Und es lasst sich nicht vermeiden
         G
Dass die Wunde klafft
A
Gibst uns am Tag
              Am
Gibst uns bei Nacht
D
Baby du weist ganz genau
C
Dass uns auf die Goschen hau'n
G
Weil wir san schwach
Am     F        Am               
Stehengelassene Weinflaschen
        G
goldene Handtaschen
F       A
 Es ist schon bei dir
Am    F         Am           
Stehengelassene Reihengarten   
                G             
Niemand will im Heim sterben
F       A
 Es ist schon bei dir

Solo 1 * 

Gibst uns am Tag
              Am
Gibst uns bei Nacht
D
Leiden heist vertreiben
       C 
Und es lasst sich nicht vermeiden
          G
Dass du's wieder machst
A
Sag was du brauchst
               Am
Auch wenn du's has(s)t
D
Baby du weist ganz genau
C
Dass uns auf die Goschen hau'n
G
Weil wir san schwach
Am     F        Am           
Stehengelassene Weinflaschen
        G
goldene Handtaschen
F      A
Es ist schon bei dir
Am    F         Am
Stehengelassene Reihengarten
                G
Niemand will im Heim sterben
F      A
Es ist schon bei dir

Solo2* 

A            F
 Ah So Ah So AH So schon bei Dir   (4x)




Solo 1* : 
e-------------------------------------------------------------------------------------
b---------------------------10b~ --------------------14~------------------------------
g----------------/6-/7/6b~ --------10~--10-9--/7~/12~---------------------------------
d-------------------------------------------------------------------------------------
A-------------------------------------------------------------------------------------
E-------------------------------------------------------------------------------------




Solo2*: 
e----------------------------------------------------------------------3~-------------
b-----10-10-8-8-5~-5-5h8~ --5----------------/101010101010--/888888----3~-------------
g----------------------------7h5--77-55-9~ -------------------------9-----------------
d-------------------------------------------------------------------------------------
A-------------------------------------------------------------------------------------
E-------------------------------------------------------------------------------------
            
Submit corrections

↑ Back to top | Tablatures and chords for acoustic guitar and electric guitar, ukulele, drums are parodies/interpretations of the original songs. You may use it for private study, scholarship, research or language learning purposes only