Home » W » Wanda »

Wanda - Bologna Tabs

Artists:  A B C D E F G H I J K L M N O P Q R S T U V W X Y Z # 

Bologna Tabs

(ver. 1) Click to play this song!
Wanda
 Rating:
4.2/5 (5 votes)
                Tuning: Standard

e|----------------2-2-2-2-2-2-2-3-2------------------------------------------|
B|---------3h5-5--------------------5-3----------3h5-5-----------------------|
G|-4-4-4-4---------------------------------5-5-5-----------------------------|
D|---------------------------------------------------------------------------|
A|---------------------------------------------------------------------------|
E|---------------------------------------------------------------------------|

e|----------------2-2-2-2-2-2-2-3-2------------------------------------------|
B|---------3h5-5--------------------5-3----------3h5-5-----------------------|
G|-4-4-4-4---------------------------------5-5-5-----------------------------|
D|---------------------------------------------------------------------------|
A|---------------------------------------------------------------------------|
E|---------------------------------------------------------------------------|

e|-----------------3-3-3-3-3-3-3-3-7-----------------------------------------|
B|-4-4-4-4-4-4-4-4-----------------------------------------------------------|
G|---------------------------------------------------------------------------|
D|---------------------------------------------------------------------------|
A|---------------------------------------------------------------------------|
E|---------------------------------------------------------------------------|            
Submit corrections

↑ Back to top | Tablatures and chords for acoustic guitar and electric guitar, ukulele, drums are parodies/interpretations of the original songs. You may use it for private study, scholarship, research or language learning purposes only