Home » W » Wanda »

Wanda - Melted Rope Tabs

Artists:  A B C D E F G H I J K L M N O P Q R S T U V W X Y Z # 

Melted Rope Tabs

(ver. 1) Click to play this song!
Wanda
 Rating:
2.1/5 (24 votes)
                INTRO

   D                Fmaj7           C

e|----------------------------------------------------|
B|----------------------------------------------------|
G|-11-------------------------------------------------|
D|----------------------------------14----------------| x2
A|------------------12--------------------------------|
E|----------------------------------------------------|


VERSE 1 (riff above continues)
D                    Fmaj7
Time, pulling like a feather
           C
From your eyes
D                   Fmaj7
Try, try to live it better
           C
Bide your time

  D                 Fmaj7
Desire, I am barely thinking
        C
In the dark
    D                      Fmaj7
And life, life is what you wanted
               C
It's what you are


SOLO RIFF

   D                    Fmaj7              C

   /----------------repeat------------------\
e|--------------------------------------------------------------|
B|--------------------------------------------------------------|
G|-11-------12-11--------------------------12-------12-11-12-14-|
D|----------------14-12-10---------9-10-12----------------------|
A|--------------------------------------------------------------|
E|--------------------------------------------------------------|


VERSE 2 (the solo notes above continue in verse 2, and go one octave up in second part)
D               Fmaj7
Shy, is anybody thinking
         C
From outside
D                      Fmaj7
Close, watching people watching
        C
You go down

  D                   Fmaj7
Devour, melting every building
          C
You have been in
   D                    Fmaj7
So talk, talk about the lonely
         C
In each journey


 - this is the second part of verse 2 - 
   /----------------repeat-------------------\
e|-14-------15-14---------------------------15-------15-14-15-17-|
B|----------------17-15-13---------12-13-15----------------------|
G|---------------------------------------------------------------|
D|---------------------------------------------------------------|
A|---------------------------------------------------------------|
E|---------------------------------------------------------------|


BRIDGE/OUTRO

   Bb              F                  C                G                                        \
                                                                                                 |
e|-------------------------------------------------------------------------------------------|   |
B|-------------------------------------------------------------------------------------------|   |
G|-------------------------------------------------------------------------------------------|   |
D|-10fb---10---8---7h8p7--------10-12-12fb---12---10---9h10p9--------------------------------|   |
A|-----------------------8------------------------------------10-----------------10--10-8-10-|   |
E|-------------------------8-------------------------------------10--8-h10p8\7---------------|   |
                                                                                                  x3
   Bb              F                      A                D             C                       |
                                                                                                 |
e|-----------------------------------------------------------------------------------|           |
B|-----------------------------------------------------------------------------------|           |
G|-----------------------------------------------------------------------------------|           |
D|-10fb---10---8---7h8p7-------------------------------------------------------------|           |
A|-----------------------8-------8---10---10fb--------12---9---9-9h10p9--7---7-7h9p7-|           |
E|-------------------------8----------------------12---------------------------------|          /
            
Submit corrections

↑ Back to top | Tablatures and chords for acoustic guitar and electric guitar, ukulele, drums are parodies/interpretations of the original songs. You may use it for private study, scholarship, research or language learning purposes only