» » »

Von Bondies - Pawn Shoppe Heart Tabs

Artists:  A B C D E F G H I J K L M N O P Q R S T U V W X Y Z # 

Pawn Shoppe Heart Tabs

(ver. 1) Click to play this song!
Von Bondies
 Rating:
4/5 (5 votes)

 Pawn Shoppe Heart lessons Tabs too difficult? Try these video lessons and learn fast
 
                ------------------------------------------------------------------------------- 
Pawn Shoppe Heart - The Von Bondies
-------------------------------------------------------------------------------


| / Slide up
| \ Slide down
| H hammer-on
| P pull-off
| ~ Vibrato
| + Harmonic
| X Mute note
| TR Tremelo 

Tuning: Standard (EADGBE)

I could tab out the intro and the rhythm guitar parts the solos are kind of hard so I
couldn't tab it out, ill tab it out later. Eventually.

Intro 00:8

E|---------------------------------------------------------------------------|
B|---------------------------------------------------------------------------|
G|---------------------------------------------------------------------------|
D|---------------------------------------------------------------------------|
A|--7--7-5---5--5------------------------------------------------------------|
E|---------7-------7-7-5--5-7-5--3-3-3—-2-3-2--------------------------------|

Same thing second time around except you push the last six notes into distortion but as power chords.

E|---------------------------------------------------------------------------|
B|---------------------------------------------------------------------------|
G|---------------------------------------------------------------------------|
D|-------------------------------5-5-5--4-5-4--------------------------------|
A|--7--7-5---5--5----------------5-5-5--4-5-4--------------------------------|
E|---------7-------7-7-5--5-7-5--3-3-3—-2-3-2--------------------------------|

Chorus 00:22
  
  The chorus is the same thing but as power chords and distortion.

          
E|---------------------------------------------------------------------------|
B|---------------------------------------------------------------------------|
G|--9--9-7-------------------------------------------------------------------|
D|--9--9-7-9-------9-9-7--7-9-7--5-5-5--4-5-4--------------------------------| X2
A|--7--7-5-9--5--5-9-9-7--7-9-7--5-5-5--4-5-4--------------------------------|
E|---------7-------7-7-5--5-7-5--3-3-3—-2-3-2--------------------------------|

This is the part where he starts to yell and the guitars stop in the background

E|---------------------------------------------------------------------------|
B|---------------------------------------------------------------------------|
G|---9--9-7----7-------------------------------------------------------------|
D|---9--9-7-9---7-------------------------7-9-7-5-5-5-4-5-4------------------|
A|---7--7-5-9---5-------------------------7 9-7-5-5-5-4-5-4------------------|
E|----------7-----------------------------5-7-5-3-3-3-2-3-2------------------|
The rhythm guitar just does the chorus till the end 

Outro 

E|---------------------------------------------------------------------------|
B|---------------------------------------------------------------------------|
G|--9--9-7-------------------------------------------------------------------|
D|--9--9-7-9-------9-9-7--7-9-7--5-5-5--4-5-4tr------------------------------| X2
A|--7--7-5-9--5--5-9-9-7--7-9-7--5-5-5--4-5-4tr------------------------------|
E|---------7-------7-7-5--5-7-5--3-3-3—-2-3-2tr------------------------------|
            
Submit corrections


        Pawn Shoppe Heart lessons Hard to play? Try these video lessons and learn fast Pawn Shoppe Heart lessons
        
↑ Back to top | Tablatures and chords for acoustic guitar and electric guitar, ukulele, drums are parodies/interpretations of the original songs. You may use it for private study, scholarship, research or language learning purposes only