Home » V » Von Bondies »

Von Bondies - Lack Of Communication Tabs

Artists:  A B C D E F G H I J K L M N O P Q R S T U V W X Y Z # 

Lack Of Communication Tabs

(ver. 1) Click to play this song!
Von Bondies
 Rating:
3.6/5 (7 votes)
                -------------------------------------------------------------------------------
-------------------------------------------------------------------------------

Tuning: standard

Intro
First bass comes in, then drums, then guitar 1 plays a clean A chord.
Then comes the fuzzed out guitar.
e|------------------------------------------------------------------------------|
B|------------------------------------------------------------------------------|
G|------------------------------------------------------------------------------|
D|------------------------------------------------------------------------------| x3
A|------------------------------------------------------------------------------|
E|--8--------7--------5---------------------------------------------------------|

e|-----------------------------------------------------------------------------|
B|-----------------------------------------------------------------------------|
G|-----------------------------------------------------------------------------|
D|-----------------------------------------------------------------------------|
A|-----------------------------------------------------------------------------|
E|--3--------2---------5-------------------------------------------------------|

Intro pt 2/Verse- use an up and down syncopated strum.
Listen to it to get the idea.
e|-----------------------------------------------------------------------------|
B|-----------------------------------------------------------------------------|
G|------------------5-5-5---7-x-7-x--------------------------------------------|
D|--7-7-7---5-5-5---5-5-5---7-x-7-x--------------------------------------------|
A|--7-7-7---5-5-5---3-3-3---5-x-5-x--------------------------------------------|
E|--5-5-5---3-3-3--------------------------------------------------------------|

Break
Down strokes on the G but syncopated on the rest.
e|------------------------------------------------------------------------------|
B|------------------------------------------------------------------------------|
G|----------7-7-7--5--4---------------------------------------------------------|
D|-5-5-5-5--7-7-7--5--4---------------------------------------------------------|
A|-5-5-5-5--5-5-5--3--2---------------------------------------------------------|
E|-3-3-3-3----------------------------------------------------------------------|

Straight down strums on this A while he sings. Then play the first intro riff and the
break between singing.
e|-----------------------------------------------------------------------------|
B|-----------------------------------------------------------------------------|
G|-----------------------------------------------------------------------------|
D|--7--------------------------------------------------------------------------|
A|--7--------------------------------------------------------------------------|
E|--5--------------------------------------------------------------------------|

These are all the parts. I haven't listed them in order because
the song is pieced together oddly. With no strict verse-chorus
pattern. Listen to it and it will all come together.
            
Submit corrections

↑ Back to top | Tablatures and chords for acoustic guitar and electric guitar, ukulele, drums are parodies/interpretations of the original songs. You may use it for private study, scholarship, research or language learning purposes only