» » »

Von Bondies - It Came From Japan Tabs

Artists:  A B C D E F G H I J K L M N O P Q R S T U V W X Y Z # 

It Came From Japan Tabs

(ver. 2) Click to play this song!
Von Bondies
 Rating:
4/5 (4 votes)

 It Came From Japan lessons Tabs too difficult? Try these video lessons and learn fast
 
                -------------------------------------------------------------------------------
			     It Came From Japan - The Von Bondies
-------------------------------------------------------------------------------

the other tab for this song aint too good, so i done did it myself god dammit, its 
such a cool song
also Rolling, the video game, best sound track ever.

Tuning: standard

Intro
e|-----------|-----------------------|
B|-----------|-----------------------|
G|-----------|-----------------------|
D|-----------|---7-9-----------------|x5
A|--+9~~~----|-9-----9999999999999---|
E|--+7~~~----|-------7777777777777---|



Verse 1
e|-------------------------|
B|-------------------------|
G|-------------------------|
D|----7-9------------------|
A|--9------9999999999999---|
E|---------7777777777777---|

theres another guitar on the verse using a chorus effect
and playing the b power chord
e|-------------------------------------|
B|-------------------------------------|
G|-------------------------------------|
D|-------------------------------------|
A|--9999999999999999999999999999999999-|
E|--7777777777777777777777777777777777-|



Chorus 1
e|-------------------------------|
B|-------------------------------|
G|-9-9-9--7-7-7------------------|
D|-9-9-9--7-7-7------------------| x2
A|-7-7-7--5-5-5-999999999999999--|
E|--------------777777777777777--|



Verse 2
e|----------------|
B|----------------|
G|----------------|
D|----7-9---------|x4
A|--9------9~~----| 
E|---------7~~----|



Chorus 2
e|-------------------------------|
B|-------------------------------|
G|-9-9-9--7-7-7------------------|
D|-9-9-9--7-7-7------------------| x2
A|-7-7-7--5-5-5-999999999999999--|
E|--------------777777777777777--|



Solo

Rhythm Guitar
e|-------------------------|	e|------------------------------------|
B|-------------------------|	B|------------------------------------|
G|-------------------------|	G|-9-9-9--7-7-7-----------------------|
D|----7-9------------------|x5  D|-9-9-9--7-7-7------------------7-9--| x2
A|--9------9999999999999---|	A|-7-7-7--5-5-5-9999999999999--9------|
E|---------7777777777777---|	E|--------------7777777777777---------|

Lead Guitar [it was too much effort to do the whole thing but
	     the rest is similar to the notes at the end so
             mess around with them and it'll sound real swell]
e|-------------------------------------------------------------------------------|
B|-----------------------------------------------------------------9-9---9---9---|etc...
G|--------7-----------7----------7--7h9-9b-9b-9b-9b-9b-7-------7-9-9-9-9-9-9-9---|
D|-7h9-9--9--9-7h9-9--9--9-7h9-9-9-----------------------9-7-9-------------------|
A|-------------------------------------------------------------------------------|
E|-------------------------------------------------------------------------------|



Verse 3
e|----------------|
B|----------------|
G|----------------|
D|----7-9---------|x4
A|--9------9~~----| 
E|---------7~~----|



Chorus 3
e|-------------------------------|
B|-------------------------------|
G|-9-9-9--7-7-7------------------|
D|-9-9-9--7-7-7------------------| x2
A|-7-7-7--5-5-5-999999999999999--|
E|--------------777777777777777--|



End Riff 
e|--------------------------|				e|-------|
B|--------------------------|				B|-(7)b--|
G|--------------------------|				G|--9-b--|
D|--9-7---7-----------------| x4 on last time end with  D|-------|
A|------9---9-7-9-99999999--|				A|-------|
E|----------------77777777--|				E|-------|


************************************

| /   slide up
| \   slide down
| h   hammer-on
| p   pull-off
| ~   vibrato
| +   harmonic
| x   Mute note
| b   Bend

************************************
            
Submit corrections


        It Came From Japan lessons Hard to play? Try these video lessons and learn fast It Came From Japan lessons
        
↑ Back to top | Tablatures and chords for acoustic guitar and electric guitar, ukulele, drums are parodies/interpretations of the original songs. You may use it for private study, scholarship, research or language learning purposes only