» » »

Velvet Revolver - She Builds Quick Machines Tabs

Artists:  A B C D E F G H I J K L M N O P Q R S T U V W X Y Z # 

She Builds Quick Machines Tabs

(ver. 1) Click to play this song!
Velvet Revolver
 Rating:
4/5 (4 votes)

 She Builds Quick Machines lessons Tabs too difficult? Try these video lessons and learn fast
 
                Hi this is the new CORRECTED TAB for "She Builds Quick Machines!"

                        ***PRO UPDATED VERSION***

It Features corretced Rhythm and solo Parts!!!!!!

As good as it gets till the Real tabs get Published.

Please Understand this is not supposed to be 100%
but rather a guide to help you and give you inspiration
to make adjustments on your own!.

I've relistened to the Song and made adjustments accordingly.

Intro Riff

   Play Till Verse
E------------------------------------------------------------------------|
B------------------------------------------------------------------------|
G------------------------------------------------------------------------|
D--10--12-0--10--12-0-10--12-10/9-10-9--0-3--0--3------------------------|
A--10--12-0--10--12-0-10--12-10/9-10-9--0-3--0--3------------------------|
E--10--12-0--10--12-0-10--12-10/9-10-9--0-3--0--3------------------------|

Verse:

E-------------------------------------------------------------------|
B-------------------------------------------------------------------|
G-------------------------------------------------------------------|
D----------------------3-0-3b~~~-----------------------5b--3--------|
A--3-5-3-5-3-5-3-5-3-5-------------3-5-3-5-3-5-3-5-3-5--------------|
E-------------------------------------------------------------------|

Pre Chorus:

E-------------------------------------------------------------------|
B-------------------------------------------------------------------|
G-------------------------------------------------------------------|
D--7--5--10--3--5--3--5--7-5----7--5--10--3--5--3--7--5--3--5-------|
A--7--5--10--3--5--3--5--7-5----7--5--10--3--5--3--7--5--3--5-------|
E--7--5--10--3--5--3--5--7-5----7--5--10--3--5--3--7--5--3--5-------|


Chorus:

E---------10---------10--------10-----------------------------------|
B---------10---------10--------10-----------------------------------|
G-------------------------------------------------------------------|
D--10--12-----10--12----10--12------3--0--3-------------------------|
A--10--12-----10--12----10--12------3--0--3-------------------------|
E--10--12-----10--12----10--12------3--0--3-------------------------|

End Of Chorus: this is the end part of the Chorus just before
the Bridge it ends with a D Chord.

E---------10---------10--------10------------------------------2----|
B---------10---------10--------10------------------------------3----|
G--------------------------------------------------------------2----|
D--10--12-----10--12----10--12------3--0--3--------------------0----|
A--10--12-----10--12----10--12------3--0--3--------------------0----|
E--10--12-----10--12----10--12------3--0--3--------------------0----|

Bridge: The only part Slash plays during the Bridge play it as
many times as you hear! Clean sound with Rhythm Pick Up.

E-------------------------------------------------------------------|
B--7--7--7h8--------8--8--7-----------------------------------------|
G--7--7--7----------7--7--7-----------------------------------------|
D-------------------------------------------------------------------|
A-------------------------------------------------------------------|
E-------------------------------------------------------------------|

Pre Solo: With Dirty Sound
-
E--1--1--1---1--1--1----1--1--1--1----3--3--3---3-3-3---3-3-3--8p7--|
B--1--1--1---1--1--1----1--1--1--1----3--3--3---3-3-3---3-3-3-----8-|
G--2--2--2---2--2--2----2--2--2--2----4--4--4---4-4-4---4-4-4-------|
D--3--3--3---3--3--3----3--3--3--3----5--5--5---5-5-5---5-5-5-------|
A--3--3--3---3--3--3----3--3--3--3----5--5--5---5-5-5---5-5-5-------|
E--x--x--x---x--x--x----x--x--x--x----x--x--x---x-x-x---x-x-x-------|

Solo:

E--------------------------------------------8-------------8--------|
B---8-8~br-p-6--8-8~br-p-6--8-8~br-p-6--6-8b---8p6-6h8--8b---8p6-6--|
G-------------7-----------7-----------7-----------------------------|
D-------------------------------------------------------------------|
A-------------------------------------------------------------------|
E-------------------------------------------------------------------|

                                                   PM=======
E---------------------------------------------------------------------|
B--8-6-5h-6p-5---6-5h-6p-5--------------------------------------------|
G--------------7-----------7p-5h 7------------------------------------|
D----------------------------------5h-7p-5----------3brp--0--3brp--0--|
A------------------------------------------5h-7-5---------------------|
E---------------------------------------------------------------------|

  PM===============================
E---------------------------------------------------------------------|
B---------------------------------------------------------------------|
G---------------------------------------------------------------------|
D--3brp--0--3brp--0-3brp--0--3brp--0---3--5br-3~~--5b--3-X------------|
A--------5--------5-------5--------5--------------------h5------------|
E---------------------------------------------------------------------|


E--------------------------------------------------------------------|
B-----------------------------------------------------12b-10---------|
G-----------------------------------------------------12b-10---------|
D-5b-3-X--5b--3-X--3/5-h-7p-5-5/7h-9p-7-7/-10h-12p-10------10h-12-10-|
A-----h5------h5-----------------------------------------------------|
E--------------------------------------------------------------------|


E----10h-13p-10-----------------------13b^--10----------------------|
B-13b^----------13p-10h--12p-10------------------13p-10--13b^-13b^--|
G--------------------------------12-10------------------------------|
D-------------------------------------------------------------------|
A-------------------------------------------------------------------|
E-------------------------------------------------------------------|


E-------------------------------15b^~~~~~-15^--15b^-15^-15b-15p-13--|
B-------------------------------------------------------------------|
G--10--12br-12-10h-12p-10-------------------------------------------|
D-------------------------12-10-------------------------------------|
A-------------------------------------------------------------------|
E-------------------------------------------------------------------|

E--15--17b^~~~--17b-17b^15-17b^-15----------------------------------|
B----------------------------------17~~~~~~~~~----------------------|
G-------------------------------------------------------------------|
D-------------------------------------------------------------------|
A-------------------------------------------------------------------|
E-------------------------------------------------------------------|

E-------------------------------------------------------------------|
B-------------------------------------------------------------------|
G-------------------------------------------------------------------|
D--7--5--10--3--5--3--5--7-5----7--5--10--3--5--3--7--5--3--5-------|
A--7--5--10--3--5--3--5--7-5----7--5--10--3--5--3--7--5--3--5-------|
E--7--5--10--3--5--3--5--7-5----7--5--10--3--5--3--7--5--3--5-------|

Outro Chorus:

E---------10---------10--------10-----------------------------------|
B---------10---------10--------10-----------------------------------|
G-------------------------------------------------------------------|
D--10--12-----10--12----10--12------3--0--3/------------------------|
A--10--12-----10--12----10--12------3--0--3/------------------------|
E--10--12-----10--12----10--12------3--0--3/------------------------|

LEGEND:
---------------------------------------
PM= Palm Mute

B= Bend

BR= Bend Release

P= Pull Off

H= Hammer On

And put your Vibrato wherever Needed!!!!
---------------------------------------
Credits
            
Submit corrections


        She Builds Quick Machines lessons Hard to play? Try these video lessons and learn fast She Builds Quick Machines lessons
        
↑ Back to top | Tablatures and chords for acoustic guitar and electric guitar, ukulele, drums are parodies/interpretations of the original songs. You may use it for private study, scholarship, research or language learning purposes only