Home » V » Velvet Revolver »

Velvet Revolver - Gravedancer Tabs

Artists:  A B C D E F G H I J K L M N O P Q R S T U V W X Y Z # 

Gravedancer Tabs

(ver. 1) Click to play this song!
Velvet Revolver
 Rating:
4/5 (20 votes)
                (Intro)
E)-------------------------|
B)1P0----------------------|
G)----0--------------------|
D)------0--3H5--0----------|
A)------------------3--2---|
E)-----------------------3-|

E)-------------------------|
B)1P0----------------------|
G)----0--------------------|
D)------0--3H5--0----------|
A)-------------------------|
E)-----------------1--1S3--|
            
Submit corrections

↑ Back to top | Tablatures and chords for acoustic guitar and electric guitar, ukulele, drums are parodies/interpretations of the original songs. You may use it for private study, scholarship, research or language learning purposes only