Home » V » Velvet Revolver »

Velvet Revolver - Pills Demons Etc Tabs

Artists:  A B C D E F G H I J K L M N O P Q R S T U V W X Y Z # 

Pills Demons Etc Tabs

(ver. 2) Click to play this song!
Velvet Revolver
 Rating:
4/5 (4 votes)
                (Intro)
-----------------------------------------------------------------------
                     Pills, Demons, & Etc. – Velvet Revolver            
-----------------------------------------------------------------------

Tuning: Standard (EAGDBe)
  Main Riff w/ wah
e|--------------------------------------------------------------------|
B|--------------------------------------------------------------------|
G|--------------------------------------------------------------------|
D|-x------------5---------------------------5----------4x-------------|
A|-x--3h5---3h5---3h5------------3h5----3h5---3h5---------------------|
E|-x\------5-----------5-3--3-4-5------5-----------5~-----------------|
  Main Riff Variation
e|--------------------------------------------------------------------|
B|------------8--------------------------8----------------------------|
G|--5h6---5h6---5h6------------5h6---5h6---5h6------------------------|
D|------7-----------7-5—-5-6-7-----7-----------7~---------------------|
A|--------------------------------------------------------------------|
E|--------------------------------------------------------------------|



| /  slide up
| \  slide down
| h  hammer-on
| p  pull-off
| ~  vibrato
| +  harmonic
| x  Mute note
===============================================================================
            
Submit corrections

↑ Back to top | Tablatures and chords for acoustic guitar and electric guitar, ukulele, drums are parodies/interpretations of the original songs. You may use it for private study, scholarship, research or language learning purposes only