» » »

Velvet Revolver - Last Fight Tabs

Artists:  A B C D E F G H I J K L M N O P Q R S T U V W X Y Z # 

Last Fight Tabs

(ver. 1) Click to play this song!
Velvet Revolver
 Rating:
4/5 (4 votes)


 Last Fight lessons Tabs too difficult? Try these video lessons and learn fast
 
                -------------------------------------------------------------------------------
-------------------------------------------------------------------------------

this Tab is not 100% correct but should give u an idea and make your own correction.


Tuning:Standard

e|-------10-12-10-------------12-----------12-10--------10----12----10-------|
B|-----10---------10----9-12-----9-12----9-----------12----------------------|
G|-------------------------------------9----------12-------12----12----12----|
D|-12----------------12------------------------------------------------------|
A|---------------------------------------------------------------------------|
E|---------------------------------------------------------------------------|
14
e|/14-14--14-13-12-10------10-12-10------------12----------12-10-------10----12----10-----14-14--------|
B|/15-15--15-14-13-10---10----------10----9-12----9-12---9----------12--------------------15-15--------|
G|-------------------------------------12--------------9---------12-------12----12----12---------------|
D|-----------------------------------------------------------------------------------------------------|
A|-----------------------------------------------------------------------------------------------------|
E|-----------------------------------------------------------------------------------------------------|


A			  Bm
Time feels like I've been back in jail
      	   G			   D
Like when I was doing time in the can
A		     Bm
Spend all night on a bended knee
	G		      D
Just to beg for something to believe
Em               G			   A
Left home with a pack of clothes without a family tree

[Chorus] D-Bm-G-A *Slash plays the intro during chorus*

This fight could be the last fight
No giving and no winning
One time could be the all the time
Should we decide to end the misery

Chord: A-Bm-G-D

e|---------------------------------------------------------------------------|
B|---------------------------------------------------------------------------|
G|-/2~------2---2-4--------------------------------------2---2---------------|
D|------2h4---4-----2-4~---2-4-2--------------2-4-4~-2h4---4-----------------|
A|-------------------------------5-5-5--2-5-2--------------------------------|
E|---------------------------------------------------------------------------|

verse 2
Same chord progression

Time heals all of the burned out bridges
Filled with nothing more than misery
With the mask of the unbattled son
Trying to beg for something to believe
Left home with a pack of clothes without a family tree

[Chorus] D-Bm-G-A

This fight could be the last fight
No giving and no winning
One time could be the all the time
Should we decide to end the misery

*Slash Uses either Delay or tremolo effect on this part*

Em-G
Break the chains of featherweights and giants
Em-G
With the stain forever lasting liars
Em-G
They're afraid when we spit out the fire
D
And start living
A
And start living
G
And start living

Guitar Solo


e|--------------------------------|
B|--------------------------------|
G|--------------7---7-9p-7--------|
D|------7--7h-9---9--------9------|
A|-7h-9---------------------------|
E|--------------------------------|

e|---------------------------------------------------------------------------|
B|----10--10p-7-----7----------------------------7-8-10-7--------------------|
G|-9b------------9b---7-9~-7---7-9-7---7-9-7-9b~----------9-7----------------|
D|---------------------------9-------9---------------------------------------|
A|---------------------------------------------------------------------------|
E|---------------------------------------------------------------------------|

e|-----------10p-8--------------14-17b-15-14-----------17--------------------|
B|------------------7/-15~--/15---------------17-15-------17b-17b-17b-15-----|
G|-9-7----7-----------------------------------------16-----------------------|
D|---------------------------------------------------------------------------|
A|---------------------------------------------------------------------------|
E|---------------------------------------------------------------------------|

e|---------------------------------------------13--13--13--13--13--13--13--13-------------|
B|-17--------------------15-17b--17b-15----15--15b-15b-15b-15b-15b-15b-15b----15p-13-15~--|
G|----16-18b~-----16h-18----------------16------------------------------------------------|
D|-------------17-------------------------------------------------------------------------|
A|----------------------------------------------------------------------------------------|
E|----------------------------------------------------------------------------------------|

[Chorus] D-Bm-G-A

This fight could be the last fight
No giving and no winning
One time could be the all the time
Should we decide to end the misery




[Chorus x3]

| /  slide up
| \  slide down
| h  hammer-on
| p  pull-off
| ~  vibrato
| +  harmonic
| x  Mute note
===============================================================================
            
Submit corrections



        Last Fight lessons Hard to play? Try these video lessons and learn fast Last Fight lessons
        
↑ Back to top | Tablatures and chords for acoustic guitar and electric guitar, ukulele, drums are parodies/interpretations of the original songs. You may use it for private study, scholarship, research or language learning purposes only