Home » V » Velvet Revolver »

Velvet Revolver - Fall To Pieces Bass

Artists:  A B C D E F G H I J K L M N O P Q R S T U V W X Y Z # 

Fall To Pieces Bass

(ver. 3) Click to play this song!
Velvet Revolver
-------------------------------------------------------------------------------
			     FALL TO PIECES - Velvet Revolver
-------------------------------------------------------------------------------
Here we go :)


Tuning: Standard Tunning

Please note: This bass line is very similiar throughout the whole song, but i have tried 
tab every part of this tab as precisely as possible.
As in this song, the bass is soft but awesome, it is hard to pick out exaclty the bass 
But i will try my best to tab it correctly.
Please excuse minor mistakes, and correct them in the comments if you like. I will edit 
corrections as soon as possible if nessecery.


Intro:

G|---------------16-15-13-11----------------16-15-13--11--|
D|--13p11-13p11---------------13p11-13p11--15x------------|   x2
A|--------------------------------------------------------|   second time, "It's been a year...."
E|--------------------------------------------------------|

G|---------------16-15-13-11----------------16-15-13-11-----------|
D|--13p11-13p11---------------13p11-13p11--15x----------13-11-----|
A|------------------------------------------------------------13--|
E|----------------------------------------------------------------|


Pre-Chorus:

G|--------------------------------------------------|
D|---------------------------------------11-1111p9--|    "Every time I'm falling down...."
A|--11-11111111-9h11-11111111111111--9-9------------|    Note: Those notes are 11's, not 1's.
E|--------------------------------------------------|

G|-------------------------------------------------|
D|-------------------------------------------------|
A|--11-11111111-9h11-111111111111-9-999-11--974----|
E|---------------------------------------------72--|


Break:

G|--------------------------------|
D|--------------------------------|
A|--4-44-4-444--2-2------1h2-1h2--|
E|------4-----------012-2---------|

G|--------------------------|
D|------------686------124--|
A|--4-44-4-6/8---8--2-2-----|
E|------6-------------------|


Verse:

G|---------------------------|
D|---------------------------|      "I keep a journal of memories...."
A|--4-4--2----4-4--2------2--|
E|---------2---------012-----|

G|---------------------------------|
D|---------------------------------|
A|--4-4--2----4-4--2------1h2-1h2--|
E|---------2---------012-2---------|


Pre-Chorus:

G|-------------------------6-6666-4----|
D|--4/6666-4/6666666-4-4444---------4--|      "Every time I'm falling down...."
A|-------------------------------------|
E|-------------------------------------|

G|---------------------------4-------|
D|--4/6666-4/6666666-4-44446--6542---|
A|-----------------------------------|
E|--------------------------------2--|


Chorus:

G|------------------------------|
D|------------------------------|      "Every time I'm falling down...."
A|--4-44-4-444-2-2-----1h2-1h2--|      x2
E|------4---------012-2---------|

G|------46-------------------------|
D|-----6-----4p3-------------------|
A|--4-4----4----4-2-2-----1h2-1h2--|
E|----------4--------012-2---------|

G|------------------------------|
D|------------------------------|
A|--4-44-4-444-2-2--------------|
E|------4---------012-22-2-2----|


Bridge:

G|-----------------------------------|
D|-----------------------------------|     "All the years I've tried...."
A|--1111111111114444------------464--|     Note: These notes are 1's, not 11's
E|------------------222222222222-----|

G|-----------------------------------|
D|-----------------------------------|
A|--1111111111116666------------464--|
E|------------------222222222222-----|

G|------------------------------------|
D|------------------------------------|
A|--1111111111114444------------4444--|
E|------------------444444444444------|

G|------------------------------------|
D|------------------234444444444442---|
A|---------------------------------4--|
E|--2222222222222222------------------|


Guitar Solo:

G|------------------------------|
D|------------------------------|
A|--4-44-4-444-2-2-----1h2-1h2--|
E|------4---------012-2---------|

G|---------------------------------|
D|----------9119-------------------|
A|--4-44-/11----119-2-2---1h2-1h2--|
E|----------------------2----------|

G|------------------------------|
D|------------------------------|
A|--4-44-4-444-2-2--------------|
E|------4---------012-22-2-2----|

G|----------------------------------|
D|----------------------------------|
A|--4/6666666666666666--------------|
E|--------------------2222224-4442--|


Chorus:

G|------------------------------|
D|------------------------------|       "Every time I'm falling down...."
A|--4-44-4-444-2-2-----1h2-1h2--|
E|------4---------012-2---------|

G|---------------------------------|
D|----------9119-------------------|
A|--4-44-/11----119-2-2---1h2-1h2--|
E|----------------------2----------|

G|------------------------------|
D|------------------------------|
A|--4-44-4-444-2-2-----1h2-1h2--|
E|------4---------012-2---------|

G|-----------------------------------|
D|-----------911111111999999---------|
A|--4--4-4/11---------------9-79797--|
E|----4------------------------------|


Collision/Double Chorus:

G|------------------------------|
D|------------------------------|       "Every time I'm falling down...."
A|--4-44-4-444-2-2-----1h2-1h2--|
E|------4---------012-2---------|

G|------------------------------|
D|------------------------------|
A|--4-44-4-444-2-2-----1h2-1h2--|
E|------4---------012-2---------|

G|------------------------------|
D|------------------------------|
A|--4-44-4-444-2-2-----1h2-1h2--|
E|------4---------012-2---------|

G|--------------------|
D|--------------------|
A|--4-44-4-444-2-2----|
E|------4----------2--|

NOTE: You will probably have to work out the timing and the perfect amount of notes to 
block because it was really hard catch the amount of notes.
But from this, you should be able to play the song. Use your imagination.
You will find that it is a lot easier than you think it is to play this tab, than maybe 
it looks like. Anyway so this is my second tab. So yeah! :) GOOD LUCK!


| /  slide up
| \  slide down
| h  hammer-on
| p  pull-off
| ~  vibrato
| +  harmonic
| x  Mute note
===============================================================================

GOOD LUCK WITH THIS SONG :D

I know it's not perfect but the parts that are not perfect, use your imagination and 
it in :D
I tried my best to do this tab exact as possible. Comment me the corrections and I will 
those parts asap. Hope you like it!


--------------------------------------------------------------------------------------------

or Facebook.
Thanks comment and rate! :)
Good luck
            
Submit corrections

↑ Back to top | Tablatures and chords for acoustic guitar and electric guitar, ukulele, drums are parodies/interpretations of the original songs. You may use it for private study, scholarship, research or language learning purposes only