Home » V » Veil Of Maya »

Veil Of Maya - We Bow In It's Aura Tabs

Artists:  A B C D E F G H I J K L M N O P Q R S T U V W X Y Z # 

We Bow In It's Aura Tabs

(ver. 2) Click to play this song!
Veil Of Maya
"(1)
-------------------------------------------------------------------------------
Veil of Maya : We Bow In Its Aura
-------------------------------------------------------------------------------

Modified by: Foster (bornofmaya)

Notes: This is my version of this tab of the other tab up. It's not accurate, but it's acceptable.


Riff 1 (0:00)
Repeat: x2
Note: this part is NOT accurate, but works.

|-------------------------|
|-------------------------|
|-------------------------|
|----------8p7------------|
|-0------------8----------|
|-0--0h3h7-------0--0-000-|
  *              *  * ***

|-----------------------------------------|
|-----------------------------------------|
|-----------------------------------------|
|-------------------------20p12p8-19p11p7-|
|---------17p12p8-------------------------|
|-0h8h12----------17p12p8-----------------|
          T       T       T       T

|--------------------------------|
|--------------------------------|
|--------------------------------|
|----8----8---3---3--------------|
|---12---12---7---7----------5-5-|
|-0----0----0---0----0-1-4-5-----|
  *    *    *   *

|--------------------------------------------------|
|--------------------------------------------------|
|--------------------------------------------------|
|-----8---8---7---7--4h5p4-----------5-7---5---4---|
|--------------------------6-5-3-5-6-----6---5---5-|
|-4/5---5---4---4----------------------------------|
    *   *   *   *

Riff 2 (0:18)
Pattern: A x1, B x2

A        B
|-------|----------------------------------------|
|-------|----------------------------------------|
|-7h8p7-|-5h7p5-----------5h7p5-----------5h7p5--|
|-------|-------5-------5-------5-------5--------|
|-------|---------6-3-6-----------6-3-6----------|
|-------|----------------------------------------|


(0:23)

|---------------------------------------|
|---------------------------------------|
|-7h8p7-----------7h8p7-----------7h8p7-|
|-------7-------7-------7-------7-------|
|---------9-5-9-----------9-5-9---------|
|---------------------------------------|

|----------------------------------------------------------|
|----------------------------------------------------------|
|-11h12p11----------------11h12p11----------------11h12p11-|
|----------12----------12----------12----------12----------|
|-------------13-12-13----------------13-12-13-------------|
|----------------------------------------------------------|


Riff 3 (0:27)
Repeat: x2
Note: probably wrong, but works.

|--------------------------------|
|-16-----15---13---12~---12---13-|
|----0-0----0----0-----0----0----|
|--------------------------------|
|--------------------------------|
|--------------------------------|
     * *    *    *     *    *

(0:31)

|---------------------------------------------------------|
|---------------------------------------------------------|
|----------7---8---12/11---11---12----15/14---14---12--11-|
|---------------------------------------------------------|
|-0-5-4----5---6---10/-9----9---10----13/12---12---10---9-|
|-0-5-4--0---0---0--------0---0----0--------0----0----0---|
  * *    *   *   *        *   *    *        *    *    *

|-----------------|
|-----------------|
|-6/7-7-7-7/8-8-8-|
|-----------------|
|-4/5-5-5-5/6-6-6-|
|-----------------|

Riff 3 Variation (0:36)

|--------------------------------|
|-16-----15---13---12~---12---13-|
|----0-0----0----0-----0----0----|
|--------------------------------|
|--------------------------------|
|--------------------------------|
     * *    *    *     *    *

|----------------|---------11h15p11------11h15-20p15p11-------|
|-16-----15---13-|-------13--------13--13--------------13-----|
|----0-0----0----|-----12------------12------------------12---|
|----------------|---13------------------------------------13-|
|----------------|-15-----------------------------------------|
|----------------|--------------------------------------------|
     * *    *                                  T

(0:40)

|---------------------------------------------------------|
|---------------------------------------------------------|
|----------7---8---12/11---11---12----15/14---14---12--11-|
|---------------------------------------------------------|
|-0-5-4----5---6---10/-9----9---10----13/12---12---10---9-|
|-0-5-4--0---0---0--------0---0----0--------0----0----0---|
  * *    *   *   *        *   *    *        *    *    *

|-----------------|
|-----------------|
|-6/7-7-7-7/8-8-8-|
|-----------------|
|-4/5-5-5-5/6-6-6-|
|-----------------|

Riff 4 (0:44)
Repeat: x2

|------------------------------------------|
|------------------------------------------|
|------------------------------------------|
|--------4h7p4------------5h8p5-----8h12p8-|
|------------------------------------------|
|-111-111------111-111-111------111--------|
  *** ***      *** *** ***      ***

|------------------------------------8h10p8-|
|-------------------------------------------|
|-------------------------------------------|
|-----------------7h10p7--------------------|
|-------------------------------------------|
|-111-111-111-111--------111-111-111--------|
  *** *** *** ***        *** *** ***

|---------------------------------------------14h15h17-----|
|------------7h10p7-----8h11p8-----------------------------|
|----------------------------------------------------------|
|----------------------------------------------------------|
|----------------------------------------------------------|
|-111-111-111-------111--------111-111-111-111---------111-|
  *** *** ***       ***        *** *** *** ***         ***

(1:01)
Repeat x2

|---------------------------------------------14h15h17-|
|------------------------------------------------------|
|------------------------------------------------------|
|-13/--------------------------------------------------|
|------------------------------------------------------|
|------111-111--111-111-111--111--111-111-111----------|
       *** ***  *** *** ***  ***  *** *** ***

(1:10)

|-15h17h18----22-22-22-17-17-17--------|
|--------------------------------------|
|--------------------------------14/17-|
|--------------------------------------|
|--------------------------------------|
|--------------------------------------|

Riff 5 (1:12)

|------------------------------------------|
|------------------------------------------|
|------------------------------------------|
|------------------------------------------|
|------------------------------------------|
|-11-11---11-11-11---11---11-11-11-11---11-|
  ** **   ** ** **   **   ** ** ** **   **

(1:16)
Repeat: x2

|------------------------------------------|
|------------------------------------------|
|------------------------------------------|
|------------------------------------------|
|------------------------------------------|
|-55-55---55-55-55---55---55-55-55-55---55-|
  ** **   ** ** **   **   ** ** ** **   **

|------------------------------------------|
|------------------------------------------|
|------------------------------------------|
|------------------------------------------|
|------------------------------------------|
|-11-11---11-11-11---11---11-11-11-11---11-|
  ** **   ** ** **   **   ** ** ** **   **

Riff 6 (1:16)
Repeat: x2
Note: this is NOT how its played, but it works.

|---------------------------------15-17-15-------------------------|
|-------------------------------15--------15-----------------------|
|-12-14-12--------12-14-15-14-15------------15-14-15-14-12-14-12---|
|---------12-10-12----------------------------------------------12-|
|------------------------------------------------------------------|
|------------------------------------------------------------------|

|----------------------------18-19-18----------------------------|
|----------------------16--16--------16--------------------------|
|-15-16-15--------15-16--16------------16-15-16-15---------------|
|---------16-13-16--------------------------------16-13-16-15-16-|
|----------------------------------------------------------------|
|----------------------------------------------------------------|

(1:36)

|---------------------|
|---------------------|
|-12h14p12------12h14-|
|---------12--12------|
|-----------13--------|
|---------------------|

Riff 7 (1:37)
Repeat: x6

|--------------------------------------------------|
|--------------------------------------------------|
|--------------------------------------------------|
|-5/6-----1-----5/6-----1---------5/6-----1--------|
|-5/6-----1-----5/6-----1---------5/6-----1--------|
|-5/6--0--1--0--5/6--0--1--5-5-5--5/6--0--1--5-5-5-|
       *     *       *     * * *       *     * * *

Riff 8 (1:59)

|--------------------------------------------------|
|--------------------------------------------------|
|--------------------------------------------------|
|-7----8-1210------------7----8-1210---------------|
|-5-55-5-8-8-3-1-11-1--3-5-55-5-8-8-3-1-11-1-0-0-0-|
|-5-55-5-8-8-3-1-11-1--3-5-55-5-8-8-3-1-11-1-0-0-0-|
    **           **        **           **     *

|------------------------------|
|------------------------------|
|------------------------------|
|-7----8-1210----------------5-|
|-5-55-5-8-8--1-1-11-----3h5---|
|-5-55-5-8-8--1-1-11--3h5------|
    **            **

(2:10)

|------------------------------------------------|
|------------------------------------------------|
|---------7-5-3-5--------------------------------|
|-7----8----------5--4h5p4-5-4-------4h5p4-5-4---|
|-5-55-5-----------------------5---------------5-|
|-5-55-5-----------------------------------------|
    **

|----|---------------------------------|
|----|---------------------------------|
|----|---------------------------------|
|-1~-|---------------------------------|
|-1~-|-6-666-6666666-666-66666-6666666-|
|-1~-|---------------------------------|
       * *** ******* *** ***** *******

|-----------------------------|
|-----------------------------|
|-----------------------------|
|-----------------------------|
|-----------------------------|
|-111-11111-1111111-111-11111-|
  *** ***** ******* *** *****

(2:22)
Pattern: (A x2.5, B x1) x2
Notes: I prefer to play the rhythm like this.

A                              B
|------------------------------|-------|
|------------------------------|-------|
|------------------------------|-------|
|------------------------------|-------|
|-----5-----5-------5--------5-|-------|
|-0-1---0-1----0001----0-001---|-0-0-0-|
  * *   * *    ****    * ***     * * *

(2:36)

|---------------------------------|
|---------------------------------|
|---------------------------------|
|---------------------------------|
|---------------------------------|
|-00000-0000000-000-00000-0000000-|
  ***** ******* *** ***** *******

|----------------------------------|
|----------------------------------|
|----------------------------------|
|----------------------------------|
|----------------------------------|
|-000-00000-0000000-000-00000-0000-|
  *** ***** ******* *** ***** ****

(2:44)
Pattern: A x2.5, B x1

A                              B
|------------------------------|-------|
|------------------------------|-------|
|------------------------------|-------|
|------------------------------|-------|
|-----5-----5-------5--------5-|-------|
|-0-1---0-1----0001----0-001---|-0-0-0-|
  * *   * *    ****    * ***     * * *

(2:51)
Pattern: A x2.5, B x1

A                              B
|------------------------------|-------|
|------------------------------|-------|
|------------------------------|-------|
|-----5-----5-------5--------5-|-------|
|-----5-----5-------5--------5-|-------|
|-0-1---0-1----0001----0-001---|-0-0-0-|
  * *   * *    ****    * ***     * * *

(2:58)
Repeat: x2
Notes: wrong, but usable.

|--------------------------------------------|
|--------------------------------------------|
|--------------------------------------------|
|-----5-----2-------10-------12-----7-----10-|
|-----7-----3-------12-------13-----8-----12-|
|-0-0---0-0---0-000----0-000----0-0--0-0-----|
  * *   * *   * ***    * ***    * *  * *

|----------------------------------|
|----------------------------------|
|----------------------------------|
|-------5-------5-----5-----5------|
|-------5-------5-----5-----5------|
|-0-000---0-000---0-0---0-0----000-|
  * ***   * ***   * *   * *    ***

(3:12)

|---------------------------------|
|---------------------------------|
|---------------------------------|
|---------------------------------|
|---------------------------------|
|-00000-0000000-000-00000-0000000-|
  ***** ******* *** ***** *******

|----------------------------------|
|----------------------------------|
|----------------------------------|
|----------------------------------|
|----------------------------------|
|-000-00000-0000000-000-00000-0000-|
  *** ***** ******* *** ***** ****

|---------------------------------|
|---------------------------------|
|---------------------------------|
|---------------------------------|
|---------------------------------|
|-000-000-00000-0000000-000-00000-|
  *** *** ***** ******* *** *****

|-----------------------------------|
|-----------------------------------|
|-----------------------------------|
|-----------------------------------|
|-----------------------------------|
|-00000000-000-00000-0000000-000-00-|
  ******** *** ***** ******* *** **
"            
Submit corrections

↑ Back to top | Tablatures and chords for acoustic guitar and electric guitar, ukulele, drums are parodies/interpretations of the original songs. You may use it for private study, scholarship, research or language learning purposes only