Home » V » Veil Of Maya »

Veil Of Maya - Daenerys Tabs

Artists:  A B C D E F G H I J K L M N O P Q R S T U V W X Y Z # 

Daenerys Tabs

(ver. 1) Click to play this song!
Veil Of Maya
--------------------------------------------------
--------------------------------------------------
------------------14--15---------------------------
--12--15---7--8---10--12---7---8---10--------------
--8---12---3--5---8---10---5---5---8---------------
--8---12---3--5------------4---5---8---11-1--11-1--
                                      ..    ..



-------------------------------------------------
-------------------------------------------------
-------------------------------------------------
--7---8---10--12---10----------------------------
--5---5---8---8----8---8--------5-------1--------
--4---5---8---8----8---8---1--1---1--11---11-1---
                                     ..   ..


----------------------------
----------------------------
----------------------------
----------------------------
------------5-----5-6--00---
---11-1--11----11------00---
   ..    ..    ..      .. 


--------------------------------------------------
--------------------------------------------------
------------------7---5---------------------------
--12--15---7--8---5---5---7---8---10--------------
--8---12---3--5---6---6---5---5---8---------------
--8---12---3--5---5---5---4---5---8---11-1--11-1--
                                      ..    ..



-------------------------------------------------
-------------------------------------------------
-------------------------------------------------
--7---8---10--12---10----------------------------
--5---5---8---8----8---8--------5-------1--------
--4---5---8---8----8---8---1--1---1--11---11-1---
                                     ..   ..


-------------------------------------------------------------------------
-------------------------------------------------------------------------
-------------------------------------------------------------------------
-------------------------------------------------------------------------
--00--0-0---0--0--00--0-0--00--0-0--0-0--0---0--000--000--00--0-000------
--11--1-1---1--1--11--1-1--11--1-1--1-1--1---1--111--111--11--1-111-0----            
Submit corrections

↑ Back to top | Tablatures and chords for acoustic guitar and electric guitar, ukulele, drums are parodies/interpretations of the original songs. You may use it for private study, scholarship, research or language learning purposes only