Home » V » Veil Of Maya »

Veil Of Maya - Daenerys Tabs

Artists:  A B C D E F G H I J K L M N O P Q R S T U V W X Y Z # 

Daenerys Tabs

(ver. 2) Click to play this song!
Veil Of Maya
Tuning:

C#|------------------------------------------|
G#|------------------------------------------|
E |----------------7-5-----------------------|
B |---12/15--7/8---5-5-7-8-10----------------|
F#|---8-/12--3/5---6-6-5-5-8-----------------|
B |---8-/12--3/5-------4-5-8--1-00-1---------|
                                ..

C#|-----------------------------------------------------------|
G#|-----------------------------------------------------------|
E |-----------------------------------------------------------|
B |---7-8-10-12-10--------------------------------------------|
F#|---5-5-8--8--8--8---------5----111-----------5----5/6------|
B |---4-5-8--8--8--8---1--11---1------333--1-11---11-----11---|
                          ..      ... ...    ..   ..     ..


C#|---------------------------------------------------------|
G#|------------------------------15-------------------------|
E |------------------------10/12----------------------------|
B |-----5h7h8----12-----------------------------------------|
F#|-----------------------------------------12/13-----10----|
B |---5--------8-----12-13------------12-10---------8-------|


C#|---------------------------------------------------------------------------|
G#|---------------------------------------------------------------------------|
E |---------------------------------------------------------------------------|
B |---------------------------------------------------------------------------|
F#|---------------------------------------------------------------------------|
B |---------------------------------------------------------------------------|



C#|---------------------------------------------------------------------------|
G#|---------------------------------------------------------------------------|
E |---------------------------------------------------------------------------|
B |---------------------------------------------------------------------------|
F#|---------------------------------------------------------------------------|
B |---------------------------------------------------------------------------|            
Submit corrections

↑ Back to top | Tablatures and chords for acoustic guitar and electric guitar, ukulele, drums are parodies/interpretations of the original songs. You may use it for private study, scholarship, research or language learning purposes only