» » »

Vaselines - Molly Lips Tabs

Artists:  A B C D E F G H I J K L M N O P Q R S T U V W X Y Z # 

Molly Lips Tabs

(ver. 1) Click to play this song!
Vaselines
 Rating:
4/5 (4 votes)
                Ok this is a really easy song, the same the whole way through. Just get used to it, and 
is like the easiest song ever.

I have tabbed both the guitar and the bass guitar, get the timing and everything to 
and you can perform this after memorizing the easy lyrics.

Please rate, post comments and enjoy playing! :)


To play this song completely:
1 x Electric Guitar
1 x Bass Guitar
1 x Drums

Electric Guitar: Distortion On.


Intro:

Electric Guitar:

e|----------------------------------------------|
B|----------------------------------------------|
G|-------------5--5--5---------------5--5--5----|
D|--5--5--5----5--5--5----5--5--5----5--5--5----|
A|--5--5--5----3--3--3----5--5--5----3--3--3----|
E|--3--3--3---------------3--3--3---------------|

e|----------------------------------------------|
B|----------------------------------------------|
G|-------------5--5--5---------------5--5--5--5-|
D|--5--5--5----5--5--5----5--5--5----5--5--5--5-|
A|--5--5--5----3--3--3----5--5--5----3--3--3--3-|
E|--3--3--3---------------3--3--3---------------|

e|----------------------------------------------|
B|----------------------------------------------|
G|-------------5--5--5---------------5--5--5----|
D|--5--5--5----5--5--5----5--5--5----5--5--5----|
A|--5--5--5----3--3--3----5--5--5----3--3--3----|
E|--3--3--3---------------3--3--3---------------|

e|----------------------------------------------|
B|----------------------------------------------|
G|-------------5--5--5---------------5--5--5--5-|
D|--5--5--5----5--5--5----5--5--5----5--5--5--5-|
A|--5--5--5----3--3--3----5--5--5----3--3--3--3-|
E|--3--3--3---------------3--3--3---------------|

Bass Guitar:

|--------------------------------------------|
|--------------------------------------------|
|------------3--3--3-----------3--3--3-------|
|---3--3--3-----------3--3--3----------------|

|--------------------------------------------|
|--------------------------------------------|
|------------3--3--3-----------3--3--3--3----|
|---3--3--3-----------3--3--3----------------|

|--------------------------------------------|
|--------------------------------------------|
|------------3--3--3-----------3--3--3-------|
|---3--3--3-----------3--3--3----------------|

|--------------------------------------------|
|--------------------------------------------|
|------------3--3--3-----------3--3--3--3----|
|---3--3--3-----------3--3--3----------------|


Verse 1:

Electric Guitar:

e|----------------------------------------------|
B|----------------------------------------------|
G|-------------5--5--5---------------5--5--5----|
D|--5--5--5----5--5--5----5--5--5----5--5--5----|
A|--5--5--5----3--3--3----5--5--5----3--3--3----|
E|--3--3--3---------------3--3--3---------------|
  She said, she'd take me anywhere, she'd take
e|----------------------------------------------|
B|----------------------------------------------|
G|-------------5--5--5---------------5--5--5--5-|
D|--5--5--5----5--5--5----5--5--5----5--5--5--5-|
A|--5--5--5----3--3--3----5--5--5----3--3--3--3-|
E|--3--3--3---------------3--3--3---------------|
  me anywhere, as long as she stays with me.
e|----------------------------------------------|
B|----------------------------------------------|
G|-------------5--5--5---------------5--5--5----|
D|--5--5--5----5--5--5----5--5--5----5--5--5----|
A|--5--5--5----3--3--3----5--5--5----3--3--3----|
E|--3--3--3---------------3--3--3---------------|
  She said, she'd take me anywhere, she'd take
e|----------------------------------------------|
B|----------------------------------------------|
G|-------------5--5--5---------------5--5--5--5-|
D|--5--5--5----5--5--5----5--5--5----5--5--5--5-|
A|--5--5--5----3--3--3----5--5--5----3--3--3--3-|
E|--3--3--3---------------3--3--3---------------|
  me anywhere, as long as I stay clean.

Bass Guitar:

|--------------------------------------------|
|--------------------------------------------|
|------------3--3--3-----------3--3--3-------|
|---3--3--3-----------3--3--3----------------|
She said, she'd take me anywhere, she'd take me
|--------------------------------------------|
|--------------------------------------------|
|------------3--3--3-----------3--3--3--3----|
|---3--3--3-----------3--3--3----------------|
anywhere, as long as she stays with me.
|--------------------------------------------|
|--------------------------------------------|
|------------3--3--3-----------3--3--3-------|
|---3--3--3-----------3--3--3----------------|
She said, she'd take me anywhere, she'd take me
|--------------------------------------------|
|--------------------------------------------|
|------------3--3--3-----------3--3--3--3----|
|---3--3--3-----------3--3--3----------------|
anywhere, as long as I stay clean.


Main Chorus:

Electric Guitar:

e|----------------------------------------------|
B|----------------------------------------------|
G|-------------5--5--5---------------5--5--5----|
D|--5--5--5----5--5--5----5--5--5----5--5--5----|
A|--5--5--5----3--3--3----5--5--5----3--3--3----|
E|--3--3--3---------------3--3--3---------------|
    Kiss,      kiss       Molly's    Lips.
e|----------------------------------------------|
B|----------------------------------------------|
G|-------------5--5--5---------------5--5--5--5-|
D|--5--5--5----5--5--5----5--5--5----5--5--5--5-|
A|--5--5--5----3--3--3----5--5--5----3--3--3--3-|
E|--3--3--3---------------3--3--3---------------|
    Kiss,      kiss       Molly's    Lips.
e|----------------------------------------------|
B|----------------------------------------------|
G|-------------5--5--5---------------5--5--5----|
D|--5--5--5----5--5--5----5--5--5----5--5--5----|
A|--5--5--5----3--3--3----5--5--5----3--3--3----|
E|--3--3--3---------------3--3--3---------------|
    Kiss,      kiss       Molly's    Lips.
e|----------------------------------------------|
B|----------------------------------------------|
G|-------------5--5--5---------------5--5--5--5-|
D|--5--5--5----5--5--5----5--5--5----5--5--5--5-|
A|--5--5--5----3--3--3----5--5--5----3--3--3--3-|
E|--3--3--3---------------3--3--3---------------|
    Kiss,      kiss       Molly's    Lips.

Bass Guitar:

|--------------------------------------------|
|--------------------------------------------|
|------------3--3--3-----------3--3--3-------|
|---3--3--3-----------3--3--3----------------|
    Kiss,    kiss     Molly's  Lips.
|--------------------------------------------|
|--------------------------------------------|
|------------3--3--3-----------3--3--3--3----|
|---3--3--3-----------3--3--3----------------|
    Kiss,    kiss     Molly's  Lips.
|--------------------------------------------|
|--------------------------------------------|
|------------3--3--3-----------3--3--3-------|
|---3--3--3-----------3--3--3----------------|
    Kiss,    kiss     Molly's  Lips.
|--------------------------------------------|
|--------------------------------------------|
|------------3--3--3-----------3--3--3--3----|
|---3--3--3-----------3--3--3----------------|
    Kiss,    kiss     Molly's  Lips.


Verse 2:

Electric Guitar:

e|----------------------------------------------|
B|----------------------------------------------|
G|-------------5--5--5---------------5--5--5----|
D|--5--5--5----5--5--5----5--5--5----5--5--5----|
A|--5--5--5----3--3--3----5--5--5----3--3--3----|
E|--3--3--3---------------3--3--3---------------|
  She said, she'd take me anywhere, she'd take
e|----------------------------------------------|
B|----------------------------------------------|
G|-------------5--5--5---------------5--5--5--5-|
D|--5--5--5----5--5--5----5--5--5----5--5--5--5-|
A|--5--5--5----3--3--3----5--5--5----3--3--3--3-|
E|--3--3--3---------------3--3--3---------------|
  me anywhere, as long as she stays with me.
e|----------------------------------------------|
B|----------------------------------------------|
G|-------------5--5--5---------------5--5--5----|
D|--5--5--5----5--5--5----5--5--5----5--5--5----|
A|--5--5--5----3--3--3----5--5--5----3--3--3----|
E|--3--3--3---------------3--3--3---------------|
  She said, she'd take me anywhere, she'd take
e|----------------------------------------------|
B|----------------------------------------------|
G|-------------5--5--5---------------5--5--5--5-|
D|--5--5--5----5--5--5----5--5--5----5--5--5--5-|
A|--5--5--5----3--3--3----5--5--5----3--3--3--3-|
E|--3--3--3---------------3--3--3---------------|
  me anywhere, as long as I stay clean.

Bass Guitar:

|--------------------------------------------|
|--------------------------------------------|
|------------3--3--3-----------3--3--3-------|
|---3--3--3-----------3--3--3----------------|
She said, she'd take me anywhere, she'd take me
|--------------------------------------------|
|--------------------------------------------|
|------------3--3--3-----------3--3--3--3----|
|---3--3--3-----------3--3--3----------------|
anywhere, as long as she stays with me.
|--------------------------------------------|
|--------------------------------------------|
|------------3--3--3-----------3--3--3-------|
|---3--3--3-----------3--3--3----------------|
She said, she'd take me anywhere, she'd take me
|--------------------------------------------|
|--------------------------------------------|
|------------3--3--3-----------3--3--3--3----|
|---3--3--3-----------3--3--3----------------|
anywhere, as long as I stay clean.


Main Chorus:

Electric Guitar:

e|----------------------------------------------|
B|----------------------------------------------|
G|-------------5--5--5---------------5--5--5----|
D|--5--5--5----5--5--5----5--5--5----5--5--5----|
A|--5--5--5----3--3--3----5--5--5----3--3--3----|
E|--3--3--3---------------3--3--3---------------|
    Kiss,      kiss       Molly's    Lips.
e|----------------------------------------------|
B|----------------------------------------------|
G|-------------5--5--5---------------5--5--5--5-|
D|--5--5--5----5--5--5----5--5--5----5--5--5--5-|
A|--5--5--5----3--3--3----5--5--5----3--3--3--3-|
E|--3--3--3---------------3--3--3---------------|
    Kiss,      kiss       Molly's    Lips.
e|----------------------------------------------|
B|----------------------------------------------|
G|-------------5--5--5---------------5--5--5----|
D|--5--5--5----5--5--5----5--5--5----5--5--5----|
A|--5--5--5----3--3--3----5--5--5----3--3--3----|
E|--3--3--3---------------3--3--3---------------|
    Kiss,      kiss       Molly's    Lips.
e|----------------------------------------------|
B|----------------------------------------------|
G|-------------5--5--5---------------5--5--5--5-|
D|--5--5--5----5--5--5----5--5--5----5--5--5--5-|
A|--5--5--5----3--3--3----5--5--5----3--3--3--3-|
E|--3--3--3---------------3--3--3---------------|
    Kiss,      kiss       Molly's    Lips.

Bass Guitar:

|--------------------------------------------|
|--------------------------------------------|
|------------3--3--3-----------3--3--3-------|
|---3--3--3-----------3--3--3----------------|
    Kiss,    kiss     Molly's  Lips.
|--------------------------------------------|
|--------------------------------------------|
|------------3--3--3-----------3--3--3--3----|
|---3--3--3-----------3--3--3----------------|
    Kiss,    kiss     Molly's  Lips.
|--------------------------------------------|
|--------------------------------------------|
|------------3--3--3-----------3--3--3-------|
|---3--3--3-----------3--3--3----------------|
    Kiss,    kiss     Molly's  Lips.
|--------------------------------------------|
|--------------------------------------------|
|------------3--3--3-----------3--3--3--3----|
|---3--3--3-----------3--3--3----------------|
    Kiss,    kiss     Molly's  Lips.


Bridge:

Electric Guitar:

e|----------------------------------------------|
B|----------------------------------------------|
G|-------------5--5--5---------------5--5--5----|
D|--5--5--5----5--5--5----5--5--5----5--5--5----|
A|--5--5--5----3--3--3----5--5--5----3--3--3----|
E|--3--3--3---------------3--3--3---------------|

e|----------------------------------------------|
B|----------------------------------------------|
G|-------------5--5--5---------------5--5--5--5-|
D|--5--5--5----5--5--5----5--5--5----5--5--5--5-|
A|--5--5--5----3--3--3----5--5--5----3--3--3--3-|
E|--3--3--3---------------3--3--3---------------|

e|----------------------------------------------|
B|----------------------------------------------|
G|-------------5--5--5---------------5--5--5----|
D|--5--5--5----5--5--5----5--5--5----5--5--5----|
A|--5--5--5----3--3--3----5--5--5----3--3--3----|
E|--3--3--3---------------3--3--3---------------|

e|----------------------------------------------|
B|----------------------------------------------|
G|-------------5--5--5---------------5--5--5--5-|
D|--5--5--5----5--5--5----5--5--5----5--5--5--5-|
A|--5--5--5----3--3--3----5--5--5----3--3--3--3-|
E|--3--3--3---------------3--3--3---------------|

Bass Guitar:

|--------------------------------------------|
|--------------------------------------------|
|------------3--3--3-----------3--3--3-------|
|---3--3--3-----------3--3--3----------------|

|--------------------------------------------|
|--------------------------------------------|
|------------3--3--3-----------3--3--3--3----|
|---3--3--3-----------3--3--3----------------|

|--------------------------------------------|
|--------------------------------------------|
|------------3--3--3-----------3--3--3-------|
|---3--3--3-----------3--3--3----------------|

|--------------------------------------------|
|--------------------------------------------|
|------------3--3--3-----------3--3--3--3----|
|---3--3--3-----------3--3--3----------------|


Verse 3:

e|----------------------------------------------|
B|----------------------------------------------|
G|-------------5--5--5---------------5--5--5----|
D|--5--5--5----5--5--5----5--5--5----5--5--5----|
A|--5--5--5----3--3--3----5--5--5----3--3--3----|
E|--3--3--3---------------3--3--3---------------|
  She said, she'd take me anywhere, she'd take
e|----------------------------------------------|
B|----------------------------------------------|
G|-------------5--5--5---------------5--5--5--5-|
D|--5--5--5----5--5--5----5--5--5----5--5--5--5-|
A|--5--5--5----3--3--3----5--5--5----3--3--3--3-|
E|--3--3--3---------------3--3--3---------------|
  me anywhere, as long as she stays with me.
e|----------------------------------------------|
B|----------------------------------------------|
G|-------------5--5--5---------------5--5--5----|
D|--5--5--5----5--5--5----5--5--5----5--5--5----|
A|--5--5--5----3--3--3----5--5--5----3--3--3----|
E|--3--3--3---------------3--3--3---------------|
  She said, she'd take me anywhere, she'd take
e|----------------------------------------------|
B|----------------------------------------------|
G|-------------5--5--5---------------5--5--5--5-|
D|--5--5--5----5--5--5----5--5--5----5--5--5--5-|
A|--5--5--5----3--3--3----5--5--5----3--3--3--3-|
E|--3--3--3---------------3--3--3---------------|
  me anywhere, as long as I stay clean.

Bass Guitar:

|--------------------------------------------|
|--------------------------------------------|
|------------3--3--3-----------3--3--3-------|
|---3--3--3-----------3--3--3----------------|
She said, she'd take me anywhere, she'd take me
|--------------------------------------------|
|--------------------------------------------|
|------------3--3--3-----------3--3--3--3----|
|---3--3--3-----------3--3--3----------------|
anywhere, as long as she stays with me.
|--------------------------------------------|
|--------------------------------------------|
|------------3--3--3-----------3--3--3-------|
|---3--3--3-----------3--3--3----------------|
She said, she'd take me anywhere, she'd take me
|--------------------------------------------|
|--------------------------------------------|
|------------3--3--3-----------3--3--3--3----|
|---3--3--3-----------3--3--3----------------|
anywhere, as long as I stay clean.


Main Chorus:

e|----------------------------------------------|
B|----------------------------------------------|
G|-------------5--5--5---------------5--5--5----|
D|--5--5--5----5--5--5----5--5--5----5--5--5----|
A|--5--5--5----3--3--3----5--5--5----3--3--3----|
E|--3--3--3---------------3--3--3---------------|
    Kiss,      kiss       Molly's    Lips.
e|----------------------------------------------|
B|----------------------------------------------|
G|-------------5--5--5---------------5--5--5--5-|
D|--5--5--5----5--5--5----5--5--5----5--5--5--5-|
A|--5--5--5----3--3--3----5--5--5----3--3--3--3-|
E|--3--3--3---------------3--3--3---------------|
    Kiss,      kiss       Molly's    Lips.
e|----------------------------------------------|
B|----------------------------------------------|
G|-------------5--5--5---------------5--5--5----|
D|--5--5--5----5--5--5----5--5--5----5--5--5----|
A|--5--5--5----3--3--3----5--5--5----3--3--3----|
E|--3--3--3---------------3--3--3---------------|
    Kiss,      kiss       Molly's    Lips.
e|----------------------------------------------|
B|----------------------------------------------|
G|-------------5--5--5---------------5--5--5--5-|
D|--5--5--5----5--5--5----5--5--5----5--5--5--5-|
A|--5--5--5----3--3--3----5--5--5----3--3--3--3-|
E|--3--3--3---------------3--3--3---------------|
    Kiss,      kiss       Molly's    Lips, ah.
e|----------------------------------------------|
B|----------------------------------------------|
G|-------------5--5--5---------------5--5--5----|
D|--5--5--5----5--5--5----5--5--5----5--5--5----|
A|--5--5--5----3--3--3----5--5--5----3--3--3----|
E|--3--3--3---------------3--3--3---------------|
    Kiss,      kiss       Molly's    Lips.
e|----------------------------------------------|
B|----------------------------------------------|
G|-------------5--5--5---------------5--5--5--5-|
D|--5--5--5----5--5--5----5--5--5----5--5--5--5-|
A|--5--5--5----3--3--3----5--5--5----3--3--3--3-|
E|--3--3--3---------------3--3--3---------------|
    Kiss,      kiss       Molly's    Lips.
e|----------------------------------------------|
B|----------------------------------------------|
G|-------------5--5--5---------------5--5--5----|
D|--5--5--5----5--5--5----5--5--5----5--5--5----|
A|--5--5--5----3--3--3----5--5--5----3--3--3----|
E|--3--3--3---------------3--3--3---------------|
    Kiss,      kiss       Molly's    Lips.
e|----------------------------------------------|
B|----------------------------------------------|
G|-------------5--5--5---------------5--5--5--5~|
D|--5--5--5----5--5--5----5--5--5----5--5--5--5~|
A|--5--5--5----3--3--3----5--5--5----3--3--3--3~|
E|--3--3--3---------------3--3--3---------------|
    Kiss,      kiss       Molly's    Lips.

Bass Guitar:

|--------------------------------------------|
|--------------------------------------------|
|------------3--3--3-----------3--3--3-------|
|---3--3--3-----------3--3--3----------------|
    Kiss,    kiss     Molly's  Lips.
|--------------------------------------------|
|--------------------------------------------|
|------------3--3--3-----------3--3--3--3----|
|---3--3--3-----------3--3--3----------------|
    Kiss,    kiss     Molly's  Lips.
|--------------------------------------------|
|--------------------------------------------|
|------------3--3--3-----------3--3--3-------|
|---3--3--3-----------3--3--3----------------|
    Kiss,    kiss     Molly's  Lips.
|--------------------------------------------|
|--------------------------------------------|
|------------3--3--3-----------3--3--3--3----|
|---3--3--3-----------3--3--3----------------|
    Kiss,    kiss     Molly's  Lips, ah.
|--------------------------------------------|
|--------------------------------------------|
|------------3--3--3-----------3--3--3-------|
|---3--3--3-----------3--3--3----------------|
    Kiss,    kiss     Molly's  Lips.
|--------------------------------------------|
|--------------------------------------------|
|------------3--3--3-----------3--3--3--3----|
|---3--3--3-----------3--3--3----------------|
    Kiss,    kiss     Molly's  Lips.
|--------------------------------------------|
|--------------------------------------------|
|------------3--3--3-----------3--3--3-------|
|---3--3--3-----------3--3--3----------------|
    Kiss,    kiss     Molly's  Lips.
|--------------------------------------------|
|--------------------------------------------|
|------------3--3--3-----------3--3--3--3----|
|---3--3--3-----------3--3--3----------------|
    Kiss,    kiss     Molly's  Lips.


and that's it! The Vaselines rule!
            
Submit corrections

↑ Back to top | Tablatures and chords for acoustic guitar and electric guitar, ukulele, drums are parodies/interpretations of the original songs. You may use it for private study, scholarship, research or language learning purposes only