» » »

Vaselines - Molly Lips Bass

Artists:  A B C D E F G H I J K L M N O P Q R S T U V W X Y Z # 

Molly Lips Bass

(ver. 1) Click to play this song!
Vaselines
 Rating:
4/5 (4 votes)
                Okay, so here are the bass tabs for this song. It really is as easy as it looks! 
So here it is, please rate, post comments, and enjoy playing! :)


Intro:

|--------------------------------------------|
|--------------------------------------------|
|------------3--3--3-----------3--3--3-------|
|---3--3--3-----------3--3--3----------------|

|--------------------------------------------|
|--------------------------------------------|
|------------3--3--3-----------3--3--3--3----|
|---3--3--3-----------3--3--3----------------|

|--------------------------------------------|
|--------------------------------------------|
|------------3--3--3-----------3--3--3-------|
|---3--3--3-----------3--3--3----------------|

|--------------------------------------------|
|--------------------------------------------|
|------------3--3--3-----------3--3--3--3----|
|---3--3--3-----------3--3--3----------------|


Verse:

|--------------------------------------------|
|--------------------------------------------|
|------------3--3--3-----------3--3--3-------|
|---3--3--3-----------3--3--3----------------|
She said, she'd take me anywhere, she'd take me
|--------------------------------------------|
|--------------------------------------------|
|------------3--3--3-----------3--3--3--3----|
|---3--3--3-----------3--3--3----------------|
anywhere, as long as she stays with me. 
|--------------------------------------------|
|--------------------------------------------|
|------------3--3--3-----------3--3--3-------|
|---3--3--3-----------3--3--3----------------|
She said, she'd take me anywhere, she'd take me
|--------------------------------------------|
|--------------------------------------------|
|------------3--3--3-----------3--3--3--3----|
|---3--3--3-----------3--3--3----------------|
anywhere, as long as I stay clean.


Chorus:

|--------------------------------------------|
|--------------------------------------------|
|------------3--3--3-----------3--3--3-------|
|---3--3--3-----------3--3--3----------------|
    Kiss,    kiss     Molly's  Lips
|--------------------------------------------|
|--------------------------------------------|
|------------3--3--3-----------3--3--3--3----|
|---3--3--3-----------3--3--3----------------|
    Kiss,    kiss     Molly's  Lips
|--------------------------------------------|
|--------------------------------------------|
|------------3--3--3-----------3--3--3-------|
|---3--3--3-----------3--3--3----------------|
    Kiss,    kiss     Molly's  Lips
|--------------------------------------------|
|--------------------------------------------|
|------------3--3--3-----------3--3--3--3----|
|---3--3--3-----------3--3--3----------------|
    Kiss,    kiss     Molly's  Lips


Bridge:

|--------------------------------------------|
|--------------------------------------------|
|------------3--3--3-----------3--3--3-------|
|---3--3--3-----------3--3--3----------------|

|--------------------------------------------|
|--------------------------------------------|
|------------3--3--3-----------3--3--3--3----|
|---3--3--3-----------3--3--3----------------|

|--------------------------------------------|
|--------------------------------------------|
|------------3--3--3-----------3--3--3-------|
|---3--3--3-----------3--3--3----------------|

|--------------------------------------------|
|--------------------------------------------|
|------------3--3--3-----------3--3--3--3----|
|---3--3--3-----------3--3--3----------------|


Verse:

|--------------------------------------------|
|--------------------------------------------|
|------------3--3--3-----------3--3--3-------|
|---3--3--3-----------3--3--3----------------|
She said, she'd take me anywhere, she'd take me
|--------------------------------------------|
|--------------------------------------------|
|------------3--3--3-----------3--3--3--3----|
|---3--3--3-----------3--3--3----------------|
anywhere, as long as she stays with me. 
|--------------------------------------------|
|--------------------------------------------|
|------------3--3--3-----------3--3--3-------|
|---3--3--3-----------3--3--3----------------|
She said, she'd take me anywhere, she'd take me
|--------------------------------------------|
|--------------------------------------------|
|------------3--3--3-----------3--3--3--3----|
|---3--3--3-----------3--3--3----------------|
anywhere, as long as I stay clean.


Chorus:

|--------------------------------------------|
|--------------------------------------------|
|------------3--3--3-----------3--3--3-------|
|---3--3--3-----------3--3--3----------------|
    Kiss,    kiss     Molly's  Lips
|--------------------------------------------|
|--------------------------------------------|
|------------3--3--3-----------3--3--3--3----|
|---3--3--3-----------3--3--3----------------|
    Kiss,    kiss     Molly's  Lips
|--------------------------------------------|
|--------------------------------------------|
|------------3--3--3-----------3--3--3-------|
|---3--3--3-----------3--3--3----------------|
    Kiss,    kiss     Molly's  Lips
|--------------------------------------------|
|--------------------------------------------|
|------------3--3--3-----------3--3--3--3----|
|---3--3--3-----------3--3--3----------------|
    Kiss,    kiss     Molly's  Lips
|--------------------------------------------|
|--------------------------------------------|
|------------3--3--3-----------3--3--3-------|
|---3--3--3-----------3--3--3----------------|
    Kiss,    kiss     Molly's  Lips
|--------------------------------------------|
|--------------------------------------------|
|------------3--3--3-----------3--3--3--3----|
|---3--3--3-----------3--3--3----------------|
    Kiss,    kiss     Molly's  Lips, ah
|--------------------------------------------|
|--------------------------------------------|
|------------3--3--3-----------3--3--3-------|
|---3--3--3-----------3--3--3----------------|
    Kiss,    kiss     Molly's  Lips
|--------------------------------------------|
|--------------------------------------------|
|------------3--3--3-----------3--3--3--3----|
|---3--3--3-----------3--3--3----------------|
    Kiss,    kiss     Mooooolllly's  Lips...

and that's it!
            
Submit corrections

↑ Back to top | Tablatures and chords for acoustic guitar and electric guitar, ukulele, drums are parodies/interpretations of the original songs. You may use it for private study, scholarship, research or language learning purposes only