Home » V » Van Morrison »

Van Morrison - Brown Eyed Girl Ukulele

Artists:  A B C D E F G H I J K L M N O P Q R S T U V W X Y Z # 

Brown Eyed Girl Ukulele

(ver. 3) Click to play this song!
Van Morrison
A|-----------------3--5--7--5--3------------------------------------------------|
E|--3--5--7--5--3-----------------3--5--7--5--3---5---2--3--5-------------------| x2
C|------------------------------------------------2-----------------------------|
G|------------------------------------------------------------------------------|

[Verse 1]
G                C
  Hey, where did we go
G               D  
  Days when the rains came?
G             C
  Down in the hollow
G           D 
  Playing a new game,
G                C
  Laughing and a-running, hey, hey,
G                D
  Skipping and a-jumping
G              C
  In the misty morning fog with
G                    D
  Our, our hearts a-thumping

[Chorus]
         C   D                     G   Em
  And you,      my brown-eyed girl,
C       D                 G
  You, my brown-eyed girl.

[Chorus Tabs] (mimics the guitar solo in the chorus)

A|-----------------------------------------------5-5--3--2--0----------------|
E|--3--5--3--2--0---------0--3--2--0--2--3-----3-----------------------------|
C|-----------------0-0-2--------------------2--------------------------------|
G|---------------------------------------------------------------------------|

[Verse 2]

[Chorus]

[Bridge]
D7
Do you remember when we used to sing
G         C           G               D
Sha la la la la la la la la la la dee dah
Just like that
G         C           G               D
Sha la la la la la la la la la la dee dah
           G
La dee dah.

[Verse 3]

[Chorus]

[Outro] (same as the bridge)            
Submit corrections

↑ Back to top | Tablatures and chords for acoustic guitar and electric guitar, ukulele, drums are parodies/interpretations of the original songs. You may use it for private study, scholarship, research or language learning purposes only