» » »

Vance Joy - My Kind Of Man Tabs

Artists:  A B C D E F G H I J K L M N O P Q R S T U V W X Y Z # 

My Kind Of Man Tabs

(ver. 2) Click to play this song!
Vance Joy
 Rating:
1.9/5 (28 votes)

 My Kind Of Man  lessons Tabs too difficult? Try these video lessons and learn fast
 
                Tuning: Standard


  G6                                     C                   Am
e|-------------------|------------------|-------------------|-------------------|
B|------------0------|----0-------0-----|--------1-------1--|--------1-------1--|
G|----0---2-------2--|--------2-------0-|----0-------0------|----2------0h2-----|
D|-------------------|------------------|-------------------|-------------------|
A|-------------------|------------------|--3---3---3---3----|--0---0---0--------|
E|--3---3---3---3----|--3---3---3---3---|-------------------|-------------------|


  G6                                     C                   Am
e|-------------------|------------------|-------------------|-----|
B|------------0------|----0-------0-----|--------1-------1--|-----|
G|----0---2-------2--|--------2-------0-|----0-------0------|-----|
D|-------------------|------------------|-------------------|-----|
A|-------------------|------------------|--3---3---3---3----|--0--| 
E|--3---3---3---3----|--3---3---3---3---|-------------------|-----|            
Submit corrections


        My Kind Of Man  lessons Hard to play? Try these video lessons and learn fast My Kind Of Man  lessons
        
↑ Back to top | Tablatures and chords for acoustic guitar and electric guitar, ukulele, drums are parodies/interpretations of the original songs. You may use it for private study, scholarship, research or language learning purposes only