Home » U » Used »

Used - Just A Little [#] Bass

Artists:  A B C D E F G H I J K L M N O P Q R S T U V W X Y Z # 

Just A Little [#] Bass

(ver. 1) Click to play this song!
Used
"(1)
The used-Just a little

Intro:

G -----
D -----
A 1-1-1
D -----

2nd part of intro:

G ---------------------------
D ---------------------3-----
A 3p555555555553p555555-55555
D ---------------------------
 
G --------------------------
D ---------------------3----
A 3p555555555553p555555-51-1
D --------------------------

Play the second part twice

End of intro

G --
D --
A 0~
D --

Verse:

G ------------------------
D -------3----------------
A 3p55555-555553p555551111
D ------------------------        x4

Prechorus:

G -------------------
D -------------------
A ------1-1-1------1~
D 000300-----000300--   x2

Chours:


G --------------------
D --------------------
A 1~1-1111------000000
D --------000000------

G -------------------
D -------------------
A 1~1-1111-------1---
D --------000000--0-0

G --------------------
D --------------------
A 1~1-1111------000000
D --------000000------

G --------------------
D --------------------
A 1~1-11113p5555555555
D --------------------

Verse x4

Prechorus x2

Second chorus:

G -----------------
D ---------------35
A 1~1-1111------1--
D --------0-0000---

G -------------------
D -------------------
A 1~1-1111-------1---
D --------000000--0-0

The used-Just a little

Intro:

G -----
D -----
A 1-1-1
D -----

2nd part of intro:

G ------------------------
D -------------------------------3-----
A 3p555555555553p555555-55555
D ----------------------------
 
G ----------------------------------
D --------------------------------3----
A 3p555555555553p555555---51-1
D ---------------------------------

Play the second part twice

End of intro

G --
D --
A 0~
D --

Verse:

G --------------------------
D ----------3------------------
A 3p55555-555553p555551111
D ------------------------        x4

Prechorus:

G ------------------
D -------------------
A ------1-1-1----------1~
D 000300-----0003000-   x2

Chours:


G ---------------------------
D ----------------------
A 1~1-1111-------000000
D -----------000000-------

G
D ----------------------
A 1~1-1111--------1
D -----------000000--0-0

G ---------------------------
D ----------------------
A 1~1-1111-------000000
D -----------000000-------

G -----------------------
D --------------------- 
A 1~1-11113p5555555555
D -------------------

Verse x4

Prechorus x2

Second chorus:

G
D ---------------------35
A 1~1-1111--------1
D -----------0-0000

G -------------------
D -------------------
A 1~1-1111-------1---
D --------000000--0-0

G ---3--------------3--------------
D –5--5--------35--5-5-------------
A 1~----55-5-55--1~---555555p888888
D ---------------------------------      


For the bridge you just play the verse four times

Come in on 2:42

Prechourus x2

Then:

G ------------
D ------------
A --1-1-1--1~
D 0~-----0~--  x2

G ---3-------------
D –5--5--------35--
A 1~----55-5-55--1~
D -----------------      x2

That’s thanks for looking and please rate this.
"            
Submit corrections

↑ Back to top | Tablatures and chords for acoustic guitar and electric guitar, ukulele, drums are parodies/interpretations of the original songs. You may use it for private study, scholarship, research or language learning purposes only