Home » U » Used »

Used - Just A Little [#] Bass

Artists:  A B C D E F G H I J K L M N O P Q R S T U V W X Y Z # 

Just A Little [#] Bass

(ver. 2) Click to play this song!
Used
Used - Just A Little



Tuning: Drop D - D A D G

G|-----------------------------|
D|-----------------------------|
A|--3-3-3----------------------|
D|-----------------------------|

G|-----------------------------|
D|--------------------3--------|
A|--3h5555555--3h5555---5-3----|
D|-----------------------------|

G|-----------------------------|
D|--------------------3-0-0----|
A|--3h555555---3h5555----------|
D|-----------------------------|

G|-----------------------------|
D|-----------------------------|
A|----5~-----------------------|
D|-----------------------------|

G|-----------------------------|
D|---------3-------------------|
A|--3h5555---5-3-3h5555-1-1-1--| x4
D|-----------------------------|

G|-----------------------------|
D|---------3-3-3---------------|
A|--3h5555-------3h5555-1------| x2
D|-----------------------------|

G|-----------------------------|
D|-----------------------------|
A|--22222222-------------------|
D|-----------00000000----------|

G|-----------------------------|
D|-----------------------------|
A|--22222222-------------------|
D|-----------000-4-2-0---------|

G|-----------------------------|
D|-----------------4-5---------|
A|--22222222-----2-------------|
D|-----------000---------------|

G|-----------------------------|
D|-----------------------------|
A|--22222222-------------------|
D|-----------0000-4-2-0--------|

G|--------4--------------------|
D|------4---4---------4-5------|
A|--222-------------2----------|
D|------------0-0-0------------|
            
Submit corrections

↑ Back to top | Tablatures and chords for acoustic guitar and electric guitar, ukulele, drums are parodies/interpretations of the original songs. You may use it for private study, scholarship, research or language learning purposes only