» » »

Used - Choke Me Tabs

Artists:  A B C D E F G H I J K L M N O P Q R S T U V W X Y Z # 

Choke Me Tabs

(ver. 3) Click to play this song!
Used
 Rating:
4/5 (4 votes)

 Choke Me lessons Tabs too difficult? Try these video lessons and learn fast
 
                The Used - Choke Me (bonus track)
So, this is the first time i've ever attempted to tab a song before.
so if you have problems with it, i'm sorry, but it's the best i can do.
~Dan

INTRO:
e|-----------------------------------------|
b|-----------------------------------------|
G|----------------------------5555555555---|
D|-444---444---444---444*-----5555555555---|
A|-444---444---444---444*-----3333333333---|
E|-222---222---222---222*------------------| 

               x3    
e|---------------||--------------------|
b|---------------||--------------------|
G|----55-66------||----55-6xxx6xxx-----|
D|-44-55-66-55---||-44-55-6xxx6xxx-----|
A|-44-33-44-55---||-44-33-4xxx4xxx-----|
E|-22-------33---||-22-----------------|

                                       Pm....
e|-------------------------------------------|
b|-------------------------------------------|
G|-------------------------------------------|
D|-22-x22--22-x22-x222--22-x22-22-x2---------|
A|-22-x22--22-x22-x222--22-x22-22 x2---------|
E|-22-x22--22-x22-x222--22-x22-22-x2-----432-|

 Pm...................     x3 ..............
e|--------------------------||---------------------------|
b|--------------------------||---------------------------|
G|--------------------------||---------------5555555555--|
D|--------------------------||---------------5555555555--|
A|------3333-4444-----------||------3333-444-3333333333--|
E|-2222-----------3333------||-2222----------------------|
 

               x3    
e|---------------||--------------------|
b|---------------||--------------------|
G|----55-66------||----55-6xxx6xxx-----|
D|-44-55-66-55---||-44-55-6xxx6xxx-----|
A|-44-33-44-55---||-44-33-4xxx4xxx-----|
E|-22-------33---||-22-----------------|


e|----------------------------------------|
b|----------------------------------------|
G|----------------------------------------|
D|-22-x22--22-x22-x222--22-x22-22-x2------|
A|-22-x22--22-x22-x222--22-x22-22 x2------|
E|-22-x22--22-x22-x222--22-x22-22-x2------|

       x8       x16
e|------||------|
b|------||------|
G|------||------|
D|------||-432--|
A|------||-432--|
E|-432--||-432--|


e|----|
b|----|
G|----|
D|----|      -fast picking on harmonic.
A|-7--|       (i'm almost positive this is wrong.)
E|----| 
                  x3        
e|-------------------------||-------------------------|
b|-99--999--999-999--------||-99-999-99-99999999999---|
G|-99--999--999-999--------||-99-999-99-99999999999---|
D|-77--777--777-777--------||-77-777-77-77777777777---|
A|-------------------------||-------------------------|
E|-------------------------||-------------------------|


e|-----------------------------------------|
b|-----------------------------------------|
G|----------------------------5555555555---|
D|-444---444---444---444*-----5555555555---|
A|-444---444---444---444*-----3333333333---|
E|-222---222---222---222*------------------|

                         x2
e|------------------------|
b|------------------------|
G|------------------------|
D|-22-x22--22-x22-x222----|
A|-22-x22--22-x22-x222----|
E|-22-x22--22-x22-x222----|
            
Submit corrections


        Choke Me lessons Hard to play? Try these video lessons and learn fast Choke Me lessons
        
↑ Back to top | Tablatures and chords for acoustic guitar and electric guitar, ukulele, drums are parodies/interpretations of the original songs. You may use it for private study, scholarship, research or language learning purposes only