» » »

Used - Choke Me Tabs

Artists:  A B C D E F G H I J K L M N O P Q R S T U V W X Y Z # 

Choke Me Tabs

(ver. 1) Click to play this song!
Used
 Rating:
4/5 (4 votes)

 Choke Me lessons Tabs too difficult? Try these video lessons and learn fast
 
                The Used
Choke Me (Secret Song) starts at 8 minutes
CD The Used
Dropped D tuning

Intro with screaming (1 2 3 4)
E|-------------------------------------|
B|-------------------------------------|
G|-----------------555555--------------|
D|-222-222-222-222-555555--------------|
A|-222-222-222—222-333333--------------|
D|-222-222-222-222---------------------|

Verse (As of now I'm down straight up...
E|-------------------------------------|
B|-------------------------------------|
G|------44-55---------44-55------------|
D|-2222-44-55-33-2222-44-55-33---------|
A|-2222-22-33-33-2222-22-33-33---------|
D|-2222-------33-2222-------33---------|

E|-------------------------------------|
B|-------------------------------------|
G|------44-55---------44-55-xxx-55-xxx-|
D|-2222-44-55-33-2222-44-55-xxx-55-xxx-|
A|-2222-22-33-33-2222-22-33-xxx-33-xxx-|
D|-2222-------33-2222------------------|

Chorus (You're so crazy You're so crazy)
E|---------------------------------------|
B|---------------------------------------|
G|---------------------------------------|
D|-222-222--222-2222-2222-222-222-222-22-|
A|-222-222--222-2222-2222-222-222-222-22-|
D|-222-222--222-2222-2222-222-222-222-22-|

Palm muted
E|-------|--------------|  -----------------------|
B|-------|--------------|  -----------------------|
G|-------|--------------|  ----------555555555555-|
D|-------|--------------|3x----------555555555555-|1x
A|-------|-----22-33----|  -------22-333333333333-|
D|-3-2-0-|-2222------33-|  --2222-----------------|
PM-----------------------PM---------  

Verse
Chorus

Bridge (You! *** my ass!)
E|-------------------------|
B|-------------------------|
G|-------------------------|
D|-3-2-0-3-2-0-3-2-0-3-2-0-| 2x
A|-3-2-0-3-2-0-3-2-0-3-2-0-|
D|-3-2-0-3-2-0-3-2-0-3-2-0-|
PM--------------------------

E|-------------------------|
B|-------------------------|
G|-------------------------|
D|-3-2-0-3-2-0-3-2-0-3-2-0-| 4x
A|-3-2-0-3-2-0-3-2-0-3-2-0-|
D|-3-2-0-3-2-0-3-2-0-3-2-0-|

E|---------------|
B|-555555555555--|
G|---------------|
D|---------------|
A|---------------|
D|---------------|

Not sure about this part? (Choke me! Choke me!
E|--------------------------------------------------------|
B|--------------------------------------------------------|
G|-66666666666-88888888888-99999999999-101010101010101010-| 
D|-66666666666-88888888888-99999999999-101010101010101010-|
A|-33333333333-55555555555-66666666666-777777777777777777-|
D|--------------------------------------------------------|

E|----------------|
B|-55555555-------|
G|----------------|
D|----------------|
A|----------------|
D|----------------|

Intro
Chorus

song order:
intro
verse
chorus
verse
chorus
bridge
intro
chorus

That’s all
please rate this tab
            
Submit corrections


        Choke Me lessons Hard to play? Try these video lessons and learn fast Choke Me lessons
        
↑ Back to top | Tablatures and chords for acoustic guitar and electric guitar, ukulele, drums are parodies/interpretations of the original songs. You may use it for private study, scholarship, research or language learning purposes only