» » »

Untitled - Untitled Tabs

Artists:  A B C D E F G H I J K L M N O P Q R S T U V W X Y Z # 

Untitled Tabs

(ver. 2) Click to play this song!
Untitled
 Rating:
4/5 (4 votes)

 Untitled lessons Tabs too difficult? Try these video lessons and learn fast
 
                THIS IS MY BAND'S FIRST SONG WE WROTE. I AM THE DRUMMER BUT I PLAY GUITAR ON THE SIDE. I AM ALSO THE ONLY ONE WHO KNOWS HOW TO WRITE TABS, SO THAT'S WHY I'M DOING IT.

TUNE DOWN 1 WHOLE STEP

INTRO:
|-----------------|-----------------|
|-----------------|-----------------|
|-----------------|-----------------|
|-3---------------|-3---4-5---------|
|-3---------------|-3---4-5---------|
|-1-X-X-X-X-X-X-X-|-1---2-3---------|

CHORUS:
|-----------------------------|
|-----------------------------|
|-----------------------------|
|-3-----3-----3-----3-----4-5-|
|-3-----3-----3-----3-----4-5-|
|-1-X-X-1-X-X-1-X-X-1-X-X-2-3-|

VERSE: ONLY BASS

PRE-CHORUS:
|-----------------|-----------------|
|-----------------|-----------------|
|-----------------|-----------------|
|-3---------------|-3---------------|
|-3---------------|-3---------------|
|-1-X-X-X---X-X-X-|-1-X-X-X---X-X-X-|

|-----------------|-----------------|
|-----------------|-----------------|
|-----------------|-----------------|
|-3---------------|-3---4-5---------|
|-3---------------|-3---4-5---------|
|-1-X-X-X---X-X-X-|-1---2-3---------|

BRIDGE:
|-0-|-3-|-2-|-1-|
|-0-|-3-|-2-|-1-|
|-1-|-4-|-3-|-2-|
|-2-|-5-|-4-|-3-|
|-2-|-5-|-4-|-3-|
|-0-|-3-|-2-|-1-|


THE SONG GOES IN THIS ORDER:

INTRO (PLAY 2x)
CHORUS (PLAY 2x)
VERSE (PLAY 2x)
PRE-CHORUS (PLAY 2x)
CHORUS (PLAY 4x)
VERSE (PLAY 1x)
PRE-CHORUS (PLAY 1x)
CHORUS (PLAY 4x)
BRIDGE (PLAY 2x)
CHORUS (PLAY 2x)
BRIDGE (PLAY 2x)
CHORUS (PLAY 4x)
            
Submit corrections


        Untitled lessons Hard to play? Try these video lessons and learn fast Untitled lessons
        
↑ Back to top | Tablatures and chords for acoustic guitar and electric guitar, ukulele, drums are parodies/interpretations of the original songs. You may use it for private study, scholarship, research or language learning purposes only