» » »

Unknown Mortal Orchestra - Hunnybee Live Chords

Artists:  A B C D E F G H I J K L M N O P Q R S T U V W X Y Z # 

Hunnybee Live Chords

(ver. 1) Click to play this song!
Unknown Mortal Orchestra
 Rating:
4.3/5 (13 votes)

 Hunnybee Live lessons Tabs too difficult? Try these video lessons and learn fast
 
                [Intro]

d#|--12/14--14\12--7-/10--10~--|
A#|----------------------------|
F#|--12/14--14\12--7-/11--11~--| x5
C#|----------------------------|
G#|----------------------------|
D#|----------------------------|

d#|--12/14--14\12--7-/10--10~--7-/10--10~--7-/10~--|
A#|------------------------------------------------|
F#|--12/14--14\12--7-/11--11~--7-/11--11~--7-/11~--|
C#|------------------------------------------------|
G#|------------------------------------------------|
D#|------------------------------------------------|

d#|--5--5--5---5-x-5-x-5--5-x-5-x-5--|--7--7--7-------------------------|
A#|--3--3--3---3-x-3-x-3--3-x-3-x-3--|--5--5--5---8-x-8-x---------------|
F#|--4--4--4---4-x-4-x-4--4-x-4-x-4--|--5--5--5---7-x-7-x-9-----11~\----| x4
C#|----------------------------------|------------7-x-7-x-9---9---------|
G#|----------------------------------|----------------------------------|
D#|--3--3--3---3---3---3--3---3---3--|--5--5--5---7---7---8-------------|

d#|------------------------|
A#|-----10--/(12)------12--|
F#|------------------------|
C#|--10----10/12--12-------|
G#|------------------------|
D#|------------------------|

[Verse 1]

d#|--12/14--14\12--7-/10--10~--|
A#|----------------------------|
F#|--12/14--14\12--7-/11--11~--| x5
C#|----------------------------|
G#|----------------------------|
D#|----------------------------|

d#|--12/14--14\12--7-/10--10~--7-/10--10~--7-/10~--|
A#|------------------------------------------------|
F#|--12/14--14\12--7-/11--11~--7-/11--11~--7-/11~--|
C#|------------------------------------------------|
G#|------------------------------------------------|
D#|------------------------------------------------|

[Chorus 1]

d#|--5--5--5---5-x-5-x-5--5-x-5-x-5--|--7--7--7-------------------------|
A#|--3--3--3---3-x-3-x-3--3-x-3-x-3--|--5--5--5---8-x-8-x---------------|
F#|--4--4--4---4-x-4-x-4--4-x-4-x-4--|--5--5--5---7-x-7-x-9-----11~\----| x4
C#|----------------------------------|------------7-x-7-x-9---9---------|
G#|----------------------------------|----------------------------------|
D#|--3--3--3---3---3---3--3---3---3--|--5--5--5---7---7---8-------------|

d#|------------------------|
A#|-----10--/(12)------12--|
F#|------------------------|
C#|--10----10/12--12-------|
G#|------------------------|
D#|------------------------|


[Verse 2]

d#|--12/14--14\12--7-/10--10~--|
A#|----------------------------|
F#|--12/14--14\12--7-/11--11~--| x5
C#|----------------------------|
G#|----------------------------|
D#|----------------------------|

d#|--12/14--14\12--7-/10--10~--7-/10--10~--7-/10~--|
A#|------------------------------------------------|
F#|--12/14--14\12--7-/11--11~--7-/11--11~--7-/11~--|
C#|------------------------------------------------|
G#|------------------------------------------------|
D#|------------------------------------------------|

[Chorus 2]

d#|--5--5--5---5-x-5-x-5--5-x-5-x-5--|--7--7--7-------------------------|
A#|--3--3--3---3-x-3-x-3--3-x-3-x-3--|--5--5--5---8-x-8-x---------------|
F#|--4--4--4---4-x-4-x-4--4-x-4-x-4--|--5--5--5---7-x-7-x-9-----11~\----| x4
C#|----------------------------------|------------7-x-7-x-9---9---------|
G#|----------------------------------|----------------------------------|
D#|--3--3--3---3---3---3--3---3---3--|--5--5--5---7---7---8-------------|

d#|------------------------|
A#|-----10--/(12)------12--|
F#|------------------------|
C#|--10----10/12--12-------|
G#|------------------------|
D#|------------------------|

Guitar Solo

d#|----------------------------------------------------------------------|
A#|-/12---------------------------10\7---7h10p7--------------------------|
F#|-----12-11-------11-11~---9/11---------------9b11~--9-7-9~--7-9-------|
C#|-----------9-/12------------------------------------------------9/7~--|
G#|----------------------------------------------------------------------|
D#|----------------------------------------------------------------------|

d#|--15p12-------12------------------------------------------|
A#|--------15p12-----15p12-------12--------------------------|
F#|------------------------14p12----14p12-------12-----------|
C#|---------------------------------------14p12----14p12-----|
G#|------------------------------------------------------14--|
D#|----------------------------------------------------------|

d#|----------------------------------------------------|
A#|----------------------------------------------------|
F#|--16p12-------12------------------------------------|
C#|--------16p12----16p12-------12---------------------|
G#|-----------------------14p12----14p12------12~------|
D#|---------------------------------------15~-----15~--|

d#|--------------------------12-15/-19--15-14-------14-14~--|
A#|--------------------12-15------------------12/15---------|
F#|--------------12-15--------------------------------------|
C#|--------12-14--------------------------------------------|
G#|--12-14--------------------------------------------------|
D#|---------------------------------------------------------|

d#|--12/14-17-14--14h17p14--------------------------------|
A#|-------------------------17b19~-17-15-17~-15-17--------|
F#|------------------------------------------------16/14--|
C#|-------------------------------------------------------|
G#|-------------------------------------------------------|
D#|-------------------------------------------------------|

d#|-----------------------------------------------------------------|
A#|--12----12-15-------15b17~---------------------------------------|
F#|--14b16-------14-12---------16p12-------12-----------------------|
C#|----------------------------------16p12----16p12-------12--------|
G#|-------------------------------------------------14p12----14-12--|
D#|-----------------------------------------------------------------|

[Chorus 3]

d#|--5--5--5---5-x-5-x-5--5-x-5-x-5--|--7--7--7-------------------------|
A#|--3--3--3---3-x-3-x-3--3-x-3-x-3--|--5--5--5---8-x-8-x---------------|
F#|--4--4--4---4-x-4-x-4--4-x-4-x-4--|--5--5--5---7-x-7-x-9-----11~\----| x4
C#|----------------------------------|------------7-x-7-x-9---9---------|
G#|----------------------------------|----------------------------------|
D#|--3--3--3---3---3---3--3---3---3--|--5--5--5---7---7---8-------------|

d#|------------------------|
A#|-----10--/(12)------12--|
F#|------------------------|
C#|--10----10/12--12-------|
G#|------------------------|
D#|------------------------|

            
Submit corrections


        Hunnybee Live lessons Hard to play? Try these video lessons and learn fast Hunnybee Live lessons
        
↑ Back to top | Tablatures and chords for acoustic guitar and electric guitar, ukulele, drums are parodies/interpretations of the original songs. You may use it for private study, scholarship, research or language learning purposes only