» » »

Unknown Mortal Orchestra - How Can U Luv Me Tabs

Artists:  A B C D E F G H I J K L M N O P Q R S T U V W X Y Z # 

How Can U Luv Me Tabs

(ver. 1) Click to play this song!
Unknown Mortal Orchestra
 Rating:
3.1/5 (28 votes)

 How Can U Luv Me  lessons Tabs too difficult? Try these video lessons and learn fast
 
                intro
e|-------6-6---6---3--------11-11---11---------13--13-----13-----------------|
B|-------4-4---4---3--------9--9----9----------11--11-----11-----------------|
G|-------5-5---5---3--------10-10---10---------12--12-----12-----------------| X2
D|-------4-----4---3--------9--9----9----------11--11-----11-----------------|
A|-------4-----4---3--------9--9----9----------11--11-----11-----------------|
E|---4-4-4---4-4---3---9-9--9--9-9--9---11-11--11--11-11--11-----------------|



verse
e|-------6-6---6---3--------11-11---11---------13--13-----13-----------------|
B|-------4-4---4---3--------9--9----9----------11--11-----11-----------------|
G|-------5-5---5---3--------10-10---10---------12--12-----12-----------------| X2
D|-------4-----4---3--------9--9----9----------11--11-----11-----------------|
A|-------4-----4---3--------9--9----9----------11--11-----11-----------------|
E|---4-4-4---4-4---3---9-9--9--9-9--9---11-11--11--11-11--11-----------------|



bridge:
e|--1--1---3--3---4--4---3--3---1--1---3--3---5------------------------------|
B|--1--1---3--3---4--4---3--3---1--1---3--3---5------------------------------|
G|--1--1---3--3---4--4---3--3---1--1---3--3---5------------------------------|X2
D|--1--1---3--3---4--4---3--3---1--1---3--3---5------------------------------|
A|--1--1---3--3---4--4---3--3---1--1---3--3---5------------------------------|
E|--1--1---3--3---4--4---3--3---1--1---3--3---5------------------------------|


extra bridge for improvisation. (i do this all the time)
e|--1--1---3--3---4--4---3--3---1--1---3--3---6------------------------------|
B|--1--1---3--3---4--4---3--3---1--1---3--3---6------------------------------|
G|--1--1---3--3---4--4---3--3---1--1---3--3---6------------------------------|X2
D|--1--1---3--3---4--4---3--3---1--1---3--3---6------------------------------|
A|--1--1---3--3---4--4---3--3---1--1---3--3---6------------------------------|
E|--1--1---3--3---4--4---3--3---1--1---3--3---6------------------------------|            
Submit corrections


        How Can U Luv Me  lessons Hard to play? Try these video lessons and learn fast How Can U Luv Me  lessons
        
↑ Back to top | Tablatures and chords for acoustic guitar and electric guitar, ukulele, drums are parodies/interpretations of the original songs. You may use it for private study, scholarship, research or language learning purposes only