» » »

Unearth - Aries Tabs

Artists:  A B C D E F G H I J K L M N O P Q R S T U V W X Y Z # 

Aries Tabs

(ver. 1) Click to play this song!
Unearth
 Rating:
4/5 (4 votes)
                (Intro)
because their is very few tabs and covers of this song, i'm going to post up what might 
you with the begginning,
the piano intro, converted to a guitar. this is what i managed to make:

(my guitar was in Drop C : C G C F A D)

D:|---------4-----------------------7--6--7--------------------------|
A:|----------------7--5----------------------------------------------|
F:|------6----------------------9------------------------------------|
C:|----6----------------------9--------------------------------------|
G:|--4----------------------7----------------------------------------|
C:|------------------------------------------------------------------|

D:|---------4----------------------------11--12---17--16-------------|
A:|----------------7--5---------------12-----------------------------|
F:|------6----------------------9------------------------------------|
C:|----6----------------------9--------------------------------------|
G:|--4----------------------7----------------------------------------|
C:|------------------------------------------------------------------|


Hopefully that might give you a hand if your going to try to include the piano part, i 
plucked this out, it might be somewhere in the song

D:|------------------------------------------------------------------|
A:|------------------------------------------------------------------|
F:|-------9--8-------9--8-------------9--8-------9--8----------------|
C:|-------------9----------9----------------9----------9-------------|
G:|--------------------------7----------------------------7----------|
C:|------------------------------------------------------------------|

i know its not accurate but its the one of the few/ only tabs the internet has to offer 
now, good luck
            
Submit corrections

↑ Back to top | Tablatures and chords for acoustic guitar and electric guitar, ukulele, drums are parodies/interpretations of the original songs. You may use it for private study, scholarship, research or language learning purposes only