Home » T » Tyler Joseph »

Tyler Joseph - Save Tabs

Artists:  A B C D E F G H I J K L M N O P Q R S T U V W X Y Z # 

Save Tabs

(ver. 1) Click to play this song!
Tyler Joseph
 Rating:
3.4/5 (29 votes)
                intro / verse 1

guitar 1 

e|---------------------------------------------------------------------------|
B|---------------------------------------------------------------------------|
G|---------------------------------------------------------------------------|
D|---------------9------11-----9------7--------------------------------------|
A|-9------7------7-(x8)-9-(x3)-7-(x4)-5-(x1)---------------------------------|
E|-7-(x8)-5-(x8)-------------------------------------------------------------| 

guitar 2 

e|---------------------------------------------------------------------------|
B|---------------------------------------------------------------------------|
G|---------------------------------------------------------------------------|
D|---------------------------------------------------------------------------|
A|---------------------------------------------------------------------------|
E|-7--7-9-10--10-9-5--5/14-12-10/7-------------------------------------------|

then

guitar 1

e|---------------------------------------------------------------------------|
B|---------------------------------------------------------------------------|
G|-11---11---11---11-12-11----11----11----11-12-11---9---9---9---12-11-------|
D|----9----9----9----------11----11----11----------7---7---7---7--------11---|
A|---------------------------------------------------------------------------|
E|---------------------------------------------------------------------------|

guitar 2 

e|---------------------------------------------------------------------------|
B|---------------------------------------------------------------------------|
G|---------------------------------------------------------------------------|
D|---------------9------11-----9------7--------------------------------------|
A|-9------7------7-(x8)-9-(x3)-7-(x4)-5-(x1)---------------------------------|
E|-7-(x8)-5-(x8)-------------------------------------------------------------| 

chorus

guitar 1 

e|---------------------------------------------------------------------------|
B|---------------------------------------------------------------------------|
G|---------------------------------------------------------------------------|
D|---------------9------11-----9------7--------------------------------------|
A|-9------7------7-(x8)-9-(x3)-7-(x4)-5-(x1)---------------------------------|
E|-7-(x8)-5-(x8)-------------------------------------------------------------| 

guitar 2

e|---------------------------------------------------------------------------|
B|---------------------------------------------------------------------------|
G|---------------------------------------------------------------------------|
D|---------------------------------------------------------------------------|
A|---------------------------------------------------------------------------|
E|-7--7-9-10--10-9-5--5/14-12-10/7-------------------------------------------|

guitar 3

e|---------------------------------------------------------------------------|
B|---------------------------------------------------------------------------|
G|-11---11---11---11-12-11----11----11----11-12-9---9---9---9---9/12-11------|
D|----9----9----9----------11----11----11---------7---7---7---7---------11---|
A|---------------------------------------------------------------------------|
E|---------------------------------------------------------------------------|

post chorus

guitar 1

e|---------------------------------------------------------------------------|
B|---------------------------------------------------------------------------|
G|---------------------------------------------------------------------------|
D|---------------9------11-----9------7--------------------------------------|
A|-9------7------7-(x8)-9-(x3)-7-(x4)-5-(x1)---------------------------------|
E|-7-(x8)-5-(x8)-------------------------------------------------------------| 

guitar 2

e|-22-(x8)-24-(x8)-OR-10-(x8)-12-(x8)----------------------------------------|
B|---------------------------------------------------------------------------|
G|---------------------------------------------------------------------------|
D|---------------------------------------------------------------------------|
A|---------------------------------------------------------------------------|
E|---------------------------------------------------------------------------|

verse 2

guitar 1 

e|---------------------------------------------------------------------------|
B|---------------------------------------------------------------------------|
G|---------------------------------------------------------------------------|
D|---------------9------11-----9------7--------------------------------------|
A|-9------7------7-(x8)-9-(x3)-7-(x4)-5-(x1)---------------------------------|
E|-7-(x8)-5-(x8)-------------------------------------------------------------| 

guitar 2 

e|---------------------------------------------------------------------------|
B|---------------------------------------------------------------------------|
G|---------------------------------------------------------------------------|
D|---------------------------------------------------------------------------|
A|---------------------------------------------------------------------------|
E|-7--7-9-10--10-9-5--5/14-12-10/7-------------------------------------------|

guitar 3

e|-22-(x8)-24-(x8)-OR-10-(x8)-12-(x8)----------------------------------------|
B|---------------------------------------------------------------------------|
G|---------------------------------------------------------------------------|
D|---------------------------------------------------------------------------|
A|---------------------------------------------------------------------------|
E|---------------------------------------------------------------------------|

then

guitar 1

e|---------------------------------------------------------------------------|
B|---------------------------------------------------------------------------|
G|-11---11---11---11-12-11----11----11----11-12-9---9---9---9---9/12-11------|
D|----9----9----9----------11----11----11---------7---7---7---7---------11---|
A|---------------------------------------------------------------------------|
E|---------------------------------------------------------------------------|

guitar 2 

e|---------------------------------------------------------------------------|
B|---------------------------------------------------------------------------|
G|---------------------------------------------------------------------------|
D|---------------9------11-----9------7--------------------------------------|
A|-9------7------7-(x8)-9-(x3)-7-(x4)-5-(x1)---------------------------------|
E|-7-(x8)-5-(x8)-------------------------------------------------------------|

guitar 3 

e|---------------------------------------------------------------------------|
B|---------------------------------------------------------------------------|
G|---------------------------------------------------------------------------|
D|---------------------------------------------------------------------------|
A|---------------------------------------------------------------------------|
E|-7--7-9-10--10-9-5--5/14-12-10/7-------------------------------------------|

pre chorus (Jesus...)

guitar 1

e|---------------------------------------------------------------------------|
B|---------------------------------------------------------------------------|
G|---------------------------------------------------------------------------|
D|---------------9------11-----9------7--------------------------------------|
A|-9------7------7-(x8)-9-(x3)-7-(x4)-5-(x1)---------------------------------|
E|-7-(x8)-5-(x8)-------------------------------------------------------------| 

guitar 2

e|-22-(x8)-24-(x8)-OR-10-(x8)-12-(x8)----------------------------------------|
B|---------------------------------------------------------------------------|
G|---------------------------------------------------------------------------|
D|---------------------------------------------------------------------------|
A|---------------------------------------------------------------------------|
E|---------------------------------------------------------------------------|

chorus

guitar 1 

e|---------------------------------------------------------------------------|
B|---------------------------------------------------------------------------|
G|---------------------------------------------------------------------------|
D|---------------9------11-----9------7--------------------------------------|
A|-9------7------7-(x8)-9-(x3)-7-(x4)-5-(x1)---------------------------------|
E|-7-(x8)-5-(x8)-------------------------------------------------------------| 

guitar 2

e|---------------------------------------------------------------------------|
B|---------------------------------------------------------------------------|
G|---------------------------------------------------------------------------|
D|---------------------------------------------------------------------------|
A|---------------------------------------------------------------------------|
E|-7--7-9-10--10-9-5--5/14-12-10/7-------------------------------------------|

guitar 3

e|---------------------------------------------------------------------------|
B|---------------------------------------------------------------------------|
G|-11---11---11---11-12-11----11----11----11-12-9---9---9---9---9/12-11------|
D|----9----9----9----------11----11----11---------7---7---7---7---------11---|
A|---------------------------------------------------------------------------|
E|---------------------------------------------------------------------------|

outro

e|---------------------------------------------------------------------------|
B|---------------------------------------------------------------------------|
G|---------------------------------------------------------------------------|
D|---------------------------------------------------------------------------|
A|---------------------------------------------------------------------------|
E|-7--7-9-10--10-9-5--5/14-12-10/7-------------------------------------------|            
Submit corrections

↑ Back to top | Tablatures and chords for acoustic guitar and electric guitar, ukulele, drums are parodies/interpretations of the original songs. You may use it for private study, scholarship, research or language learning purposes only