Home » T » Tyler Joseph »

Tyler Joseph - Save Tabs

Artists:  A B C D E F G H I J K L M N O P Q R S T U V W X Y Z # 

Save Tabs

(ver. 2) Click to play this song!
Tyler Joseph
 Rating:
4.3/5 (13 votes)
                [Intro] Also used throughout the whole song

e|--------------------------------------------------------------------------------------------|
B|--------------------------------------------------------------------------------------------|
G|--------------------------------------------------------------------------------------------|
D|----9---9---9--------12-----12-----12--------7---7---7---7--16-16-16--14-14-14-----12----12-|
A|----9---9---9--------12-----12-----12--------7---7---7---7--16-16-16--14-14-14-----12----12-|
E|--7---7---7---7-9-10----10-----10-----10-9-5---5---5---5---/14-14-14-/12-12-12--10----10----|

                                                                        (hold)
e|--------------------------------------------------------------------------------------------|
B|--------------------------------------------------------------------------------------------|
G|--------------------------------------------------------------------------------------------|
D|----9---9---9--------12-----12-----12--------7---7---7---7--16-16-16--14--------------------|
A|----9---9---9--------12-----12-----12--------7---7---7---7--16-16-16--14--------------------|
E|--7---7---7---7-9-10----10-----10-----10-9-5---5---5---5---/14-14-14-/12--------------------|



[Verse]

e|--------------------------------------------------------------------------------------------|
B|--------------------------------------------------------------------------------------------|
G|--------------------------------------------------------------------------------------------|
D|----9---9---9--------12-----12-----12--------7---7---7---7--16-16-16--14-14-14-----12----12-|
A|----9---9---9--------12-----12-----12--------7---7---7---7--16-16-16--14-14-14-----12----12-|
E|--7---7---7---7-9-10----10-----10-----10-9-5---5---5---5---/14-14-14-/12-12-12--10----10----|

                                                                        (hold)
e|--------------------------------------------------------------------------------------------|
B|--------------------------------------------------------------------------------------------|
G|--------------------------------------------------------------------------------------------|
D|----9---9---9--------12-----12-----12--------7---7---7---7--16-16-16--14--------------------|
A|----9---9---9--------12-----12-----12--------7---7---7---7--16-16-16--14--------------------|
E|--7---7---7---7-9-10----10-----10-----10-9-5---5---5---5---/14-14-14-/12--------------------|

Now he replays the "bass" line and plays a second line

Guitar 1 (still playing the same)

e|--------------------------------------------------------------------------------------------|
B|--------------------------------------------------------------------------------------------|
G|--------------------------------------------------------------------------------------------|
D|----9---9---9--------12-----12-----12--------7---7---7---7--16-16-16--14-14-14-----12----12-|
A|----9---9---9--------12-----12-----12--------7---7---7---7--16-16-16--14-14-14-----12----12-|
E|--7---7---7---7-9-10----10-----10-----10-9-5---5---5---5---/14-14-14-/12-12-12--10----10----|

Guitar 2

e|--------------------------------------------------------------------------------------------|
B|--7--7--7--7-8-7--7--7--7-8-5--5--5--5--7--7--5--5------------------------------------------|
G|---7--7--7------6--6--6------6--6--6--6--7--7--6--6-----------------------------------------|
D|--------------------------------------------------------------------------------------------|
A|--------------------------------------------------------------------------------------------|
E|--------------------------------------------------------------------------------------------|

Guitar 1
                                                                        (hold)
e|--------------------------------------------------------------------------------------------|
B|--------------------------------------------------------------------------------------------|
G|--------------------------------------------------------------------------------------------|
D|----9---9---9--------12-----12-----12--------7---7---7---7--16-16-16--14--------------------|
A|----9---9---9--------12-----12-----12--------7---7---7---7--16-16-16--14--------------------|
E|--7---7---7---7-9-10----10-----10-----10-9-5---5---5---5---/14-14-14-/12--------------------|

Guitar 2
                                                      (he kind of reapeats that 7 7 here)
e|--------------------------------------------------------------------------------------------|
B|--7--7--7--7-8-7--7--7--7-8-5--5--5--5--7--7--5--5--7---------------------------------------|
G|---7--7--7------6--6--6------6--6--6--6--7--7--6--6-7---------------------------------------|
D|--------------------------------------------------------------------------------------------|
A|--------------------------------------------------------------------------------------------|
E|--------------------------------------------------------------------------------------------|

Now just the main Guitar again

e|--------------------------------------------------------------------------------------------|
B|--------------------------------------------------------------------------------------------|
G|--------------------------------------------------------------------------------------------|
D|----9---9---9--------12-----12-----12--------7---7---7---7--16-16-16--14-14-14--------------|
A|----9---9---9--------12-----12-----12--------7---7---7---7--16-16-16--14-14-14--------------|
E|--7---7---7---7-9-10----10-----10-----10-9-5---5---5---5---/14-14-14-/12-12-12--------------|

[Chorus]

Saaaaaaaaaveee

Guitar 1 

e|--------------------------------------------------------------------------------------------|
B|--------------------------------------------------------------------------------------------|
G|--------------------------------------------------------------------------------------------|
D|----9---9---9--------12-----12-----12--------7---7---7---7--16-16-16--14-14-14-----12----12-|
A|----9---9---9--------12-----12-----12--------7---7---7---7--16-16-16--14-14-14-----12----12-|
E|--7---7---7---7-9-10----10-----10-----10-9-5---5---5---5---/14-14-14-/12-12-12--10----10----|

Guitar 2

e|--------------------------------------------------------------------------------------------|
B|--7--7--7--7-8-7--7--7--7-8-5--5--5--5--7--7--5--5------------------------------------------|
G|---7--7--7------6--6--6------6--6--6--6--7--7--6--6-----------------------------------------|
D|--------------------------------------------------------------------------------------------|
A|--------------------------------------------------------------------------------------------|
E|--------------------------------------------------------------------------------------------|

Now just Guitar 2

save save save save save me

e|--------------------------------------------------------------------------------------------|
B|--7--7--7--7-8-7--7--7--7-8-5--5--5--5--7--7--5--5------------------------------------------|
G|---7--7--7------6--6--6------6--6--6--6--7--7--6--6-----------------------------------------|
D|--------------------------------------------------------------------------------------------|
A|--------------------------------------------------------------------------------------------|
E|--------------------------------------------------------------------------------------------|


[Interlude] (with piano)

                                                                           (hold)
e|--------------------------------------------------------------------------------------------|
B|--------------------------------------------------------------------------------------------|
G|--------------------------------------------------------------------------------------------|
D|----9---9---9--------12-----12-----12--------7---7---7---7--16-16-16------19----------------|
A|----9---9---9--------12-----12-----12--------7---7---7---7--16-16-16------19----------------|
E|--7---7---7---7-9-10----10-----10-----10-9-5---5---5---5---/14-14-14--/17-------------------|

[Verse]
                                                                        (hold)
e|--------------------------------------------------------------------------------------------|
B|--------------------------------------------------------------------------------------------|
G|--------------------------------------------------------------------------------------------|
D|----9---9---9--------12-----12-----12--------7---7---7---7--16-16-16--14--------------------|
A|----9---9---9--------12-----12-----12--------7---7---7---7--16-16-16--14--------------------|
E|--7---7---7---7-9-10----10-----10-----10-9-5---5---5---5---/14-14-14-/12--------------------|

                                                                        (hold)
e|--------------------------------------------------------------------------------------------|
B|--------------------------------------------------------------------------------------------|
G|--------------------------------------------------------------------------------------------|
D|----9---9---9--------12-----12-----12--------7---7---7---7--16-16-16--14--------------------|
A|----9---9---9--------12-----12-----12--------7---7---7---7--16-16-16--14--------------------|
E|--7---7---7---7-9-10----10-----10-----10-9-5---5---5---5---/14-14-14-/12--------------------|

Guitar 1 

e|--------------------------------------------------------------------------------------------|
B|--------------------------------------------------------------------------------------------|
G|--------------------------------------------------------------------------------------------|
D|----9---9---9--------12-----12-----12--------7---7---7---7--16-16-16--14-14-14-----12----12-|
A|----9---9---9--------12-----12-----12--------7---7---7---7--16-16-16--14-14-14-----12----12-|
E|--7---7---7---7-9-10----10-----10-----10-9-5---5---5---5---/14-14-14-/12-12-12--10----10----|

Guitar 2

e|--------------------------------------------------------------------------------------------|
B|--7--7--7--7-8-7--7--7--7-8-5--5--5--5--7--7--5--5------------------------------------------|
G|---7--7--7------6--6--6------6--6--6--6--7--7--6--6-----------------------------------------|
D|--------------------------------------------------------------------------------------------|
A|--------------------------------------------------------------------------------------------|
E|--------------------------------------------------------------------------------------------|

Guitar 1
                                                                        (hold)
e|--------------------------------------------------------------------------------------------|
B|--------------------------------------------------------------------------------------------|
G|--------------------------------------------------------------------------------------------|
D|----9---9---9--------12-----12-----12--------7---7---7---7--16-16-16--14--------------------|
A|----9---9---9--------12-----12-----12--------7---7---7---7--16-16-16--14--------------------|
E|--7---7---7---7-9-10----10-----10-----10-9-5---5---5---5---/14-14-14-/12--------------------|

Guitar 2
                                                      (he kind of reapeats that 7 7 here)
e|--------------------------------------------------------------------------------------------|
B|--7--7--7--7-8-7--7--7--7-8-5--5--5--5--7--7--5--5--7---------------------------------------|
G|---7--7--7------6--6--6------6--6--6--6--7--7--6--6-7---------------------------------------|
D|--------------------------------------------------------------------------------------------|
A|--------------------------------------------------------------------------------------------|
E|--------------------------------------------------------------------------------------------|

Now just the main Guitar again (with piano)

Jesus.... Jesus

e|--------------------------------------------------------------------------------------------|
B|--------------------------------------------------------------------------------------------|
G|--------------------------------------------------------------------------------------------|
D|----9---9---9--------12-----12-----12--------7---7---7---7--16-16-16------------------------|
A|----9---9---9--------12-----12-----12--------7---7---7---7--16-16-16------------------------|
E|--7---7---7---7-9-10----10-----10-----10-9-5---5---5---5---/14-14-14------------------------|

[Chorus]

Saaaaaaaaaveee

Guitar 1 

e|--------------------------------------------------------------------------------------------|
B|--------------------------------------------------------------------------------------------|
G|--------------------------------------------------------------------------------------------|
D|----9---9---9--------12-----12-----12--------7---7---7---7--16-16-16--14-14-14-----12----12-|
A|----9---9---9--------12-----12-----12--------7---7---7---7--16-16-16--14-14-14-----12----12-|
E|--7---7---7---7-9-10----10-----10-----10-9-5---5---5---5---/14-14-14-/12-12-12--10----10----|

Guitar 2

e|--------------------------------------------------------------------------------------------|
B|--7--7--7--7-8-7--7--7--7-8-5--5--5--5--7--7--5--5------------------------------------------|
G|---7--7--7------6--6--6------6--6--6--6--7--7--6--6-----------------------------------------|
D|--------------------------------------------------------------------------------------------|
A|--------------------------------------------------------------------------------------------|
E|--------------------------------------------------------------------------------------------|

Now just Guitar 2

save save save save save me

e|--------------------------------------------------------------------------------------------|
B|--7--7--7--7-8-7--7--7--7-8-5--5--5--5--7--7--5--5------------------------------------------|
G|---7--7--7------6--6--6------6--6--6--6--7--7--6--6-----------------------------------------|
D|--------------------------------------------------------------------------------------------|
A|--------------------------------------------------------------------------------------------|
E|--------------------------------------------------------------------------------------------|


[Outro]

e|--------------------------------------------------------------------------------------------|
B|--------------------------------------------------------------------------------------------|
G|--------------------------------------------------------------------------------------------|
D|----9---9---9--------12-----12-----12--------7---7---7---7---6---6---9----------------------|
A|----9---9---9--------12-----12-----12--------7---7---7---7---7---7---9----------------------|            
Submit corrections

↑ Back to top | Tablatures and chords for acoustic guitar and electric guitar, ukulele, drums are parodies/interpretations of the original songs. You may use it for private study, scholarship, research or language learning purposes only