Home » T » Two Door Cinema Club »

Two Door Cinema Club - Pyramid Bass

Artists:  A B C D E F G H I J K L M N O P Q R S T U V W X Y Z # 

Pyramid Bass

(ver. 1) Click to play this song!
Two Door Cinema Club

Tuning: Standard

 (00:21-00:28)
G|-------------------------------------------------|
D|---------------------------9-9h10p9---9-9h10p9-0-|
A|----------------------7-7-7--------7-7-----------|
E|7~-8-8-8-8-7-7-7-8/10----------------------------|
 
 (00:29-0:59)
G|----------------------------------------------|    G|---------------------|
D|------------------------9-9h10p9---9-9h10p9-0-|    D|---------------------|
A|-------------------7-7-7--------7-7-----------|(x4)A|---------------------|
E|8-8-8-8-7-7-7-8/10----------------------------|    E|8-8-8-8-7-7-7-8/10-0~|

 (1:01-1:15)("We have seen what lies beneath the earth....")
G|-----------------------------------------------------------------------|
D|--------------------------------10/12-10-9-10-9----------9-10----------|
A|------77777777777710101010101010---------------8888888888--------------|
E|000000-------------------------------------------------------888888888-|

 (1:16-1:36)
G|----------------------------------------------|
D|------------------------9-9h10p9---9-9h10p9-0-|
A|-------------------7-7-7--------7-7-----------|(x3)
E|8-8-8-8-7-7-7-8/10----------------------------|

 (1:37-1:43)
G|-----------------------------------------|
D|-----------------------------------------|
A|-----------------------------------------|
E|8-8-8-8-7-7-7-8/10-0~-----------00000000-|

 (1:44-2:10)
G|------------------------------------------------------------------|
D|--------------------------10/12-10-9-10-9----------9-10-----------|
A|77777777777710101010101010---------------8888888888---------------|(x2)
E|-------------------------------------------------------8888888888-|

 (2:11-....
G|----------------------------------------------------------------|
D|----------------------------------------------------------------|
A|10-10-10-10-10-10-10-10-12-12-12-12-12-12-12-12-----------------|
E|------------------------------------------------8-8-8-8-8-8-8-8-|
 ....
G|-----------------------------------------------------------------------|
D|------------12-10-9----------------------------------------------14-14-|
A|10-10-10-10---------10-10-10-10-10-12-12-14-14-12-12-12-12-14-14-------|
E|-----------------------------------------------------------------------|
 (....-2:37)
G|--------------------------------------|
D|----------------------------12-10-9-9-|
A|----------------10-10-10-10-----------|
E|8-8-8-8-8-8-8-8-----------------------|

 (2:38-3:05)
G|----------------------------------------------------------------------|
D|--------------------------10/12-10-9-10-9-----------9-10--------------|
A|77777777777710101010101010---------------88888888888------------------|(x2)
E|--------------------------------------------------------8888888888888-|

| /  slide up
| \  slide down
| h  hammer-on
| p  pull-off
| ~  vibrato
| +  harmonic
| x  Mute not
            
Submit corrections

↑ Back to top | Tablatures and chords for acoustic guitar and electric guitar, ukulele, drums are parodies/interpretations of the original songs. You may use it for private study, scholarship, research or language learning purposes only