Home » T » Two Door Cinema Club »

Two Door Cinema Club - Do You Want It All? Tabs

Artists:  A B C D E F G H I J K L M N O P Q R S T U V W X Y Z # 

Do You Want It All? Tabs

(ver. 1) Click to play this song!
Two Door Cinema Club
-------------------------------------------------------------------------------
-------------------------------------------------------------------------------

Tuning: Standard


Corrections welcome!


INTRO (Played throughout song at different stages.)

e|---5-----5-----5---------5-----5-----5------|
B|--7-7---7-7---7-7---7---7-7---7-7---7-7---7-|
G|-7-----7-----7-----7---6-----6-----6-----6--|
D|--------------------------------------------|
A|--------------------------------------------|
E|--------------------------------------------|


CHORUS

D
Do you want it
Do you want it
Do you want it all?

A
Do you want it
Do you want it
Do you want it all?


BRIDGE

played, correct me if you think otherwise.)

D
All because you want to be
A
All because you want to be
G
All because you want to be
F#m
All because you want to be


This next bit kicks in at 2:20 until basically the end of the song. I tried 
to get this as accurate as possible! I spaced it out a little just for 
clarity of the changes.

Guitar 1 (Play quickly with some string muting between notes and keep 
repeating!)

e|-----------------------------------------------|
B|-1717-1010-1010-14-15-----1717-1010-1010-19-20-|
G|-1616--9-9--9-9-13-14-----1616--9-9--9-9-18-19-|
D|-----------------------------------------------|
A|-----------------------------------------------|
E|-----------------------------------------------|

Guitar 2 (Play each chord for same amount of time as during the bridge.)

   D         A         G         F#m             
e|---------------------------------------|
B|-----------101010x---121212x---101010x-|
G|-111111x----9-9-9x---121212x---111111x-|
D|-121212x----7-7-7x---121212x---111111x-|
A|-121212x-------------101010x----9-9-9x-|
E|-101010x-------------------------------|
            
Submit corrections

↑ Back to top | Tablatures and chords for acoustic guitar and electric guitar, ukulele, drums are parodies/interpretations of the original songs. You may use it for private study, scholarship, research or language learning purposes only