Home » T » Twisted Sister »

Twisted Sister - I Wanna Rock Bass

Artists:  A B C D E F G H I J K L M N O P Q R S T U V W X Y Z # 

I Wanna Rock Bass

(ver. 1) Click to play this song!
Twisted Sister
Band:Twisted Sister
Tuning:Standard(EADG)

Intro:
G-------------------------------------------------------------------|
D-------------0-0-0-0----------------------0-0-0-0-2----------------|     2x
A---0----------------------0--0----------------------3-0------------|
E-----3-3-3-3---------0-3---------3-3-3-3---------------------------|


         Verse:
G----------------------------------------------------------------------|
D----------------------0-0-0-0-----------------0-0---------------------|
A-0-0-0-0-0-0-0-0-0-0-------------------0----------0-0-0-0-0-0-0-0-0---| 2x
E--------------------------------3-3-3-3--3-3------------------------3-|

Pre-Chorus:

G---------------------------------------------|
D-0-----------0-0-0-0-------------------------|
A-------------------------------3---0---------|
E--3-3-3-3-0----------1-3-3-3-3---3-----------|

           Chorus:
G-------------------------------------------------------------------|
D-------------0-0-0-0----------------------0-0-0-0-2----------------|     2x
A---0----------------------0--0----------------------3-0------------|
E-----3-3-3-3---------0-3---------3-3-3-3---------------------------|


Verse:

G----------------------------------------------------------------------|
D----------------------0-0-0-0-----------------0-0---------------------|
A-0-0-0-0-0-0-0-0-0-0-------------------0----------0-0-0-0-0-0-0-0-0---| 2x
E--------------------------------3-3-3-3--3-3------------------------3-|

Pre-Chorus:

G---------------------------------------------|
D-0-----------0-0-0-0-------------------------|
A-------------------------------3---0---------|
E--3-3-3-3-0----------1-3-3-3-3---3-----------|

Chorus:

G-------------------------------------------------------------------|
D-------------0-0-0-0----------------------0-0-0-0-2----------------|     2x
A---0----------------------0--0----------------------3-0------------|
E-----3-3-3-3---------0-3---------3-3-3-3---------------------------|

Bridge:

G------------------------------------------------------------|
D------------------------2--------------------------2--------|
A---0--0--0------0--0--0---3---0--0--0-------0--0--0-3-------|   2x
E-----------0-3------------------------0-3-------------------|

Solo:

G------------------------------------------------------------------|
D-----------------0-0-0-0-----------------------0-0-0-0-2----------|
A-0-0-0-0-----------------------0-0-0-0-------------------3--------|  2x
E---------3-3-3-3----------0--3---------3-3-3-3--------------------|

Chorus:

G-------------------------------------------------------------------|
D-------------0-0-0-0----------------------0-0-0-0-2----------------|     2x
A---0----------------------0--0----------------------3-0------------|
E-----3-3-3-3---------0-3---------3-3-3-3---------------------------|
            
Submit corrections

↑ Back to top | Tablatures and chords for acoustic guitar and electric guitar, ukulele, drums are parodies/interpretations of the original songs. You may use it for private study, scholarship, research or language learning purposes only