Home » T » Twisted Sister »

Twisted Sister - You Cant Stop Rock And Roll Bass

Artists:  A B C D E F G H I J K L M N O P Q R S T U V W X Y Z # 

You Cant Stop Rock And Roll Bass

(ver. 1) Click to play this song!
Twisted Sister
INTRO
G|---------------------------------------------------------------------------|
D|---------------------------------------------------------------------------|
A|---------------------------------------------------------------------------|
E|-33-5-3-0-----------33-5-3-0-----------------------------------------------|

G|---------------------------------------------------------------------------|
D|---------------------------------------------------------------------------|
A|------5-7---------5-7\0------5-7-------5-7-77-7-----5-7-77-7--7-77-7-7-77-7|
E|--8-7---------8-7--------8-7-------8-7-----------8-7-----------------------|

G|---------------------------------------------------------------------------|
D|---------------------------------------------------------------------------|
A|-----5-7-77-7-7-77-7-7-77-7--75-5-57---------------------------------------|
E|-8-7---------------------------7-7-----------------------------------------|
VERSE
G|---------------------------------------------------------------------------|
D|---------------------------------------------------------------------------|
A|-7-77-7-7-77-7-7-77-7----5-7-77-7-7-77-7-7-77-7----5-7---------------------|
E|----------------------8-7-----------------------8-7------------------------|
PRE CHORUS
G|---------------------------------------------------------------------------|
D|---------------------------------------------------------------------------|
A|----5----------------------------------------------------------------------|
E|-8-7-5-5-32-3-5-5-32-3-5---------------------------------------------------|
CHORUS
G|---------------------------------------------------------------------------|
D|---------------------------------------------------------------------------|
A|----------77-5-55---------77-5-55--------------------77-5-55-5-77-5-55-5---|
E|-033-5-3-0-------033-5-3-0-------------------------------------------------|
END CHORUS
G|---------------------------------------------------------------------------|
D|---------------------------------------------------------------------------|
A|-75-5-57-------------------------------------------------------------------|
E|---7-7---------------------------------------------------------------------|
BRIDGE dumbed down version
G|---------------------------------------------------------------------------|
D|---------------------------------------------------------------------------|
A|----------------------------------97-7-79-75-5-57--------------------------|
E|-2-2-2-0-0--2-2-2-0-0---------------9-9-----7-7----------------------------|
END
G|---------------------------------------------------------------------------|
D|---------------------------------------------------------------------------|
A|-97-7-79-75-5-57---------7-------------------------------------------------|
E|---9-9-----7-7---333-555---------------------------------------------------|            
Submit corrections

↑ Back to top | Tablatures and chords for acoustic guitar and electric guitar, ukulele, drums are parodies/interpretations of the original songs. You may use it for private study, scholarship, research or language learning purposes only