Home » T » Twisted Sister »

Twisted Sister - I Am Im Me Bass

Artists:  A B C D E F G H I J K L M N O P Q R S T U V W X Y Z # 

I Am Im Me Bass

(ver. 2) Click to play this song!
Twisted Sister
-----------------------------------------------------------------------------
                                  
                 I Am I'm Me - Twisted Sister (BASS)
            
-----------------------------------------------------------------------------

Tuning: standard tuning

=============================================================================

Bass



     W                   H.           Q       E  E  E  E  E  E  E  E   
G||-------------------|--------------------|--------------------------|
D||-------------------|--------------------|--------------------------|
A||-------------------|--------------------|--------------------------|
E||--7----------------|--L-----------------|--0--0--0--0--0--0--0--0--|


  E  E  E  E  E  E  E  E     E  E  E  E  E  E  E  E   
--------------------------|--------------------------|
--------------------------|--------------------------|
--------------------------|--------------------------|
--0--0--0--0--0--0--0--0--|--0--0--0--0--0--0--0--0--|


  E  E  E  E  E  E  E  E     E  E  E  E  E  E  E  E   
--------------------------|--------------------------|
--------------------------|--------------------------|
--------------------------|--------------------------|
--0--0--0--0--0--0--0--0--|--0--0--0--0--0--0--0--0--|


  E  E  E  E  E  E  E  E     E  E  E  E  E  E  E  E   
--------------------------|--------------------------|
--------------------------|--------------------------|
--------------------------|--------------------------|
--0--0--0--0--0--0--0--0--|--0--0--0--0--0--0--0--0--|


  E  E  E  E  E  E  E  E     E  E  E  E  E  E  E  E   
--------------------------|--------------------------|
--------------------------|--------------------------|
--------------------------|--------------------------|
--0--0--0--0--0--0--0--0--|--0--0--0--0--0--0--0--0--|


  E  E  E  E  E  E  E  E     E  E  E  E  E  E  E  E   
--------------------------|--------------------------|
--------------------------|--------------------------|
--------------------------|--------------------------|
--0--0--0--0--0--0--0--0--|--0--0--0--0--0--0--0--0--|


  E  E  E  E  E  E  E  E     E  E  E  E  E  E  E  E   
--------------------------|--------------------------|
--------------------------|--------------------------|
--------------------------|--------------------------|
--0--0--0--0--0--0--0--0--|--0--0--0--0--0--0--0--0--|


  E  E  E  E  E  E  E  E     E  E  E  E  E  E  E  E   
--------------------------|--------------------------|
--------------------------|--------------------------|
--------------------------|--------------------------|
--0--0--0--0--0--0--0--0--|--0--0--0--0--0--0--0--0--|


  E  E  E  E  E  E  E  E     E  E  E  E  E  E  E  E   
--------------------------|--------------------------|
--------------------------|--------------------------|
--------------------------|--------------------------|
--0--0--0--0--0--0--0--0--|--0--0--0--0--0--0--0--0--|


  E  E  E  E  E  E  E  E     E  E  E  E  E  E  E  E   
--------------------------|--------------------------|
--------------------------|--------------------------|
--------------------------|--------------------------|
--0--0--0--0--0--0--0--0--|--0--0--0--0--0--0--0--0--|


  E  E  E  E  E  E  E  E     Q    Q    Q    Q       E  Q    E  H         
--------------------------|----------------------|----------------------|
--------------------------|----------------------|----------------------|
--------------------------|------------2----2----|-----2----2-----------|
--0--0--0--0--0--0--0--0--|--0----0--------------|--2----------0--------|


  Q    Q    Q    Q       E  Q    E  H           Q    Q    Q    Q     
----------------------|----------------------|----------------------|
----------------------|----------------------|----------------------|
------------2----2----|-----2----2-----------|------------2----2----|
--0----0--------------|--2----------0--------|--0----0--------------|


  E  Q    E  H           E  E  E  E  E  E  E  E     E  E  E  E  H         
----------------------|--------------------------|-----------------------|
----------------------|--------------------------|-----------------------|
-----2----2-----------|--------------------------|-----------------------|
--2----------0--------|--0--------0--------0-----|-----0--------7--------|


  W                   E  E  E  E  E  E  E  E     E  E  E  E  E  E  E  E   
-------------------|--------------------------|--------------------------|
-------------------|--------------------------|--------------------------|
-------------------|--------------------------|--------------------------|
--L----------------|--0--0--0--0--0--0--0--0--|--0--0--0--0--0--0--0--0--|


  E  E  E  E  E  E  E  E     E  E  E  E  E  E  E  E   
--------------------------|--------------------------|
--------------------------|--------------------------|
--------------------------|--------------------------|
--0--0--0--0--0--0--0--0--|--0--0--0--0--0--0--0--0--|


  E  E  E  E  E  E  E  E     E  E  E  E  E  E  E  E   
--------------------------|--------------------------|
--------------------------|--------------------------|
--------------------------|--------------------------|
--0--0--0--0--0--0--0--0--|--0--0--0--0--0--0--0--0--|


  E  E  E  E  E  E  E  E     E  E  E  E  E  E  E  E   
--------------------------|--------------------------|
--------------------------|--------------------------|
--------------------------|--------------------------|
--0--0--0--0--0--0--0--0--|--0--0--0--0--0--0--0--0--|


  E  E  E  E  E  E  E  E     E  E  E  E  E  E  E  E   
--------------------------|--------------------------|
--------------------------|--------------------------|
--------------------------|--------------------------|
--0--0--0--0--0--0--0--0--|--0--0--0--0--0--0--0--0--|


  E  E  E  E  E  E  E  E     E  E  E  E  E  E  E  E   
--------------------------|--------------------------|
--------------------------|--------------------------|
--------------------------|--------------------------|
--0--0--0--0--0--0--0--0--|--0--0--0--0--0--0--0--0--|


  E  E  E  E  E  E  E  E     E  E  E  E  E  E  E  E   
--------------------------|--------------------------|
--------------------------|--------------------------|
--------------------------|--------------------------|
--0--0--0--0--0--0--0--0--|--0--0--0--0--0--0--0--0--|


  E  E  E  E  E  E  E  E     E  E  E  E  E  E  E  E   
--------------------------|--------------------------|
--------------------------|--------------------------|
--------------------------|--------------------------|
--0--0--0--0--0--0--0--0--|--0--0--0--0--0--0--0--0--|


  E  E  E  E  E  E  E  E     E  E  E  E  E  E  E  E     Q    Q    Q    Q     
--------------------------|--------------------------|----------------------|
--------------------------|--------------------------|----------------------|
--------------------------|--------------------------|------------2----2----|
--0--0--0--0--0--0--0--0--|--0--0--0--0--0--0--0--0--|--0----0--------------|


  E  Q    E  H           Q    Q    Q    Q       E  Q    E  H         
----------------------|----------------------|----------------------|
----------------------|----------------------|----------------------|
-----2----2-----------|------------2----2----|-----2----2-----------|
--2----------0--------|--0----0--------------|--2----------0--------|


  Q    Q    Q    Q       E  Q    E  H           E  E  E  E  E  E  E  E   
----------------------|----------------------|--------------------------|
----------------------|----------------------|--------------------------|
------------2----2----|-----2----2-----------|--------------------------|
--0----0--------------|--2----------0--------|--0--------0--------0-----|


  E  E  E  E  H           W                   H.              W                 
-----------------------|-------------------|---------------|-------------------|
-----------------------|-------------------|---------------|-------------------|
-----------------------|-------------------|---------------|-------------------|
-----0--------7--------|--L----------------|--L------------|--0----------------|


  W                   E  E  E  E  E  E  E  E     E  E  E  E  E  E  E  E   
-------------------|--------------------------|--------------------------|
-------------------|--------------------------|--------------------------|
-------------------|--------------------------|--------------------------|
--L----------------|--0--0--0--0--0--0--0--0--|--0--0--0--0--0--0--0--0--|


  E  E  E  E  E  E  E  E     E  E  E  E  E  E  E  E   
--------------------------|--------------------------|
--------------------------|--------------------------|
--------------------------|--------------------------|
--0--0--0--0--0--0--0--0--|--0--0--0--0--0--0--0--0--|


  E  E  E  E  E  E  E  E     E  E  E  E  E  E  E  E   
--------------------------|--------------------------|
--------------------------|--------------------------|
--------------------------|--------------------------|
--0--0--0--0--0--0--0--0--|--0--0--0--0--0--0--0--0--|


  E  E  E  E  E  E  E  E     E  E  E  E  E  E  E  E     Q    Q    Q    Q     
--------------------------|--------------------------|----------------------|
--------------------------|--------------------------|----------------------|
--------------------------|--------------------------|------------2----2----|
--0--0--0--0--0--0--0--0--|--0--0--0--0--0--0--0--0--|--0----0--------------|


  E  Q    E  H           Q    Q    Q    Q       E  Q    E  H         
----------------------|----------------------|----------------------|
----------------------|----------------------|----------------------|
-----2----2-----------|------------2----2----|-----2----2-----------|
--2----------0--------|--0----0--------------|--2----------0--------|


  Q    Q    Q    Q       E  Q    E  H           E  E  E  E  E  E  E  E   
----------------------|----------------------|--------------------------|
----------------------|----------------------|--------------------------|
------------2----2----|-----2----2-----------|--------------------------|
--0----0--------------|--2----------0--------|--0--------0--------0-----|


  E  E  E  E  H           W                   H         
-----------------------|-------------------|-----------|
-----------------------|-------------------|-----------|
-----------------------|-------------------|-----------|
-----0--------7--------|--L----------------|--L--------|


  E  E  E  E  E  E  E  E     E  E  E  E  E  E  E  E   
--------------------------|--------------------------|
--------------------------|--------------------------|
--------------------------|--------------------------|
--0--0--0--0--0--0--0--0--|--0--0--0--0--0--0--0--0--|


  E  E  E  E  E  E  E  E     E  E  E  E  E  E  E  E   
--------------------------|--------------------------|
--------------------------|--------------------------|
--------------------------|--------------------------|
--0--0--0--0--0--0--0--0--|--0--0--0--0--0--0--0--0--|


  E  E  E  E  E  E  E  E     E  E  E  E  E  E  E  E   
--------------------------|--------------------------|
--------------------------|--------------------------|
--------------------------|--------------------------|
--0--0--0--0--0--0--0--0--|--0--0--0--0--0--0--0--0--|


  E  E  E  E  E  E  E  E     E  E  E  E  E  E  E  E     Q    Q    Q    Q     
--------------------------|--------------------------|----------------------|
--------------------------|--------------------------|----------------------|
--------------------------|--------------------------|------------2----2----|
--0--0--0--0--0--0--0--0--|--0--0--0--0--0--0--0--0--|--0----0--------------|


  E  Q    E  H           Q    Q    Q    Q       E  Q    E  H         
----------------------|----------------------|----------------------|
----------------------|----------------------|----------------------|
-----2----2-----------|------------2----2----|-----2----2-----------|
--2----------0--------|--0----0--------------|--2----------0--------|


  Q    Q    Q    Q       E  Q    E  H           E  E  E  E  E  E  E  E   
----------------------|----------------------|--------------------------|
----------------------|----------------------|--------------------------|
------------2----2----|-----2----2-----------|--------------------------|
--0----0--------------|--2----------0--------|--0--------0--------0-----|


  E  E  E  E  H           W                   H           Q    Q    Q    Q     
-----------------------|-------------------|-----------|----------------------|
-----------------------|-------------------|-----------|----------------------|
-----------------------|-------------------|-----------|------------2----2----|
-----0--------7--------|--L----------------|--L--------|--0----0--------------|


  E  Q    E  H           Q    Q    Q    Q       E  Q    E  H         
----------------------|----------------------|----------------------|
----------------------|----------------------|----------------------|
-----2----2-----------|------------2----2----|-----2----2-----------|
--2----------0--------|--0----0--------------|--2----------0--------|


  Q    Q    Q    Q       E  Q    E  H           Q    Q    Q    Q     
----------------------|----------------------|----------------------|
----------------------|----------------------|----------------------|
------------2----2----|-----2----2-----------|------------2----2----|
--0----0--------------|--2----------0--------|--0----0--------------|


  E  Q    E  H           Q    Q    Q    Q       E  Q    E  H         
----------------------|----------------------|----------------------|
----------------------|----------------------|----------------------|
-----2----2-----------|------------2----2----|-----2----2-----------|
--2----------0--------|--0----0--------------|--2----------0--------|


  Q    Q    Q    Q       E  Q    E  H           Q    Q    Q    Q     
----------------------|----------------------|----------------------|
----------------------|----------------------|----------------------|
------------2----2----|-----2----2-----------|------------2----2----|
--0----0--------------|--2----------0--------|--0----0--------------|


  E  Q    E  H           Q    Q    Q    Q       E  Q    E  H         
----------------------|----------------------|----------------------|
----------------------|----------------------|----------------------|
-----2----2-----------|------------2----2----|-----2----2-----------|
--2----------0--------|--0----0--------------|--2----------0--------|


  Q    Q    Q    Q       E  Q    E  H           Q    Q    Q    Q     
----------------------|----------------------|----------------------|
----------------------|----------------------|----------------------|
------------2----2----|-----2----2-----------|------------2----2----|
--0----0--------------|--2----------0--------|--0----0--------------|


  E  Q    E  H           Q    Q    Q    Q       E  Q    E  H         
----------------------|----------------------|----------------------|
----------------------|----------------------|----------------------|
-----2----2-----------|------------2----2----|-----2----2-----------|
--2----------0--------|--0----0--------------|--2----------0--------|


  Q    Q    Q    Q       E  Q    E  H           Q    Q    Q    Q     
----------------------|----------------------|----------------------|
----------------------|----------------------|----------------------|
------------2----2----|-----2----2-----------|------------2----2----|
--0----0--------------|--2----------0--------|--0----0--------------|


  E  Q    E  H           Q    Q    Q    Q       E  Q    E  H         
----------------------|----------------------|----------------------|
----------------------|----------------------|----------------------|
-----2----2-----------|------------2----2----|-----2----2-----------|
--2----------0--------|--0----0--------------|--2----------0--------|


  Q    Q    Q    Q       E  Q    E  H           Q    Q    Q    Q     
----------------------|----------------------|----------------------|
----------------------|----------------------|----------------------|
------------2----2----|-----2----2-----------|------------2----2----|
--0----0--------------|--2----------0--------|--0----0--------------|


  E  Q    E  H          
----------------------||
----------------------||
-----2----2-----------||
--2----------0--------||




Duration Legend
---------------
W - whole
H - half
Q - quarter
E - 8th
S - 16th
T - 32nd
X - 64th
. - note dotted
|-n-|  - n-tuplets


Tablature Legend
----------------
L - tied note
x - dead note
g - grace note
(n) - ghost note
> - accentuded note
NH - natural harmonic
AH - artificial harmonic
TH - tapped harmonic
SH - semi harmonic
PH - pitch harmonic
h - hammer on
p - pull off
b - bend
br - bendRelease
pb - preBend
pbr - preBendRelease
brb - bendReleaseBend
\n/ - tremolo bar dip
\n - tremolo bar dive
-/n - tremolo bar Release up
/n\ - tremolo bar inverted dip
/n - tremolo bar return
-\n - tremolo bar Release down
S - shift slide
s - legato slide
/ -  slide into from below or out of upwards
\ -  slide into from above or out of downwards
~ - vibrato
W - wide vibrato
tr - trill
TP - tremolo picking
T - tapping
S - slap
P - pop
< - fade in
^ - brush up
v - brush down
            
Submit corrections

↑ Back to top | Tablatures and chords for acoustic guitar and electric guitar, ukulele, drums are parodies/interpretations of the original songs. You may use it for private study, scholarship, research or language learning purposes only