Home » T » Twisted Sister »

Twisted Sister - Burn In Hell Tabs

Artists:  A B C D E F G H I J K L M N O P Q R S T U V W X Y Z # 

Burn In Hell Tabs

(Version #3)
Twisted Sister
(Intro)
-------------------------------------------------------------------------------
                             SONG NAME - Band Name
-------------------------------------------------------------------------------

Intro Solo

listen the song for accurate timing

fb=full bend

Tuning: standard E  (2004 remastered version uses Eb)

e|---------------------------------------------------------------------------|
B|-----------------------------------------------------------15--------------|
G|-9-----12----9~---------9--12--11--12--14--12--14--14fb---------14--14~----|
D|---------------------------------------------------------------------------|
A|---------------------------------------------------------------------------|
E|---------------------------------------------------------------------------|

e|------------------------------15--14--15--17--15--17--17fb--17fb--17--17~--|
B|-17--17--15--17~----------17-----------------------------------------------|
G|---------------------------------------------------------------------------|
D|---------------------------------------------------------------------------|
A|---------------------------------------------------------------------------|
E|---------------------------------------------------------------------------|

e|-15--14--12~---------------------------------------------------------------|
B|---------------------------------------------------------------------------|
G|---------------------------------------------------------------------------|
D|---------------------------------------------------------------------------|
A|---------------------------------------------------------------------------|
E|---------------------------------------------------------------------------|


| /  slide up
| \  slide down
| h  hammer-on
| p  pull-off
| ~  vibrato
| +  harmonic
| x  Mute note
===============================================================================
            
Submit corrections

↑ Back to top | Tablatures and chords for acoustic guitar and electric guitar, ukulele, drums are parodies/interpretations of the original songs. You may use it for private study, scholarship, research or language learning purposes only