Home » T » Twisted Sister »

Twisted Sister - Beast Tabs

Artists:  A B C D E F G H I J K L M N O P Q R S T U V W X Y Z # 

Beast Tabs

(ver. 1) Click to play this song!
Twisted Sister
(Intro)
||--------------------------|--------------------------||
||--------------------------|--------------------------||
||--------------------------|--------------------------||
||--------------------------|--------------------------||  X4
||-2-5-7-10----9-7--9---5-7-|-2-5-7-10----9-7--9---5-7-||
||-0-3-5--8----7-5--7---3-5-|-0-3-5--8----7-5--7---3-5-||

|-------------------------|
|-------------------------|
|-------------------------|
|-------------------------|
|-9-----------------------|
|-7-----------------------|

|----------------------||---------------------||
|----------------------||---------------------||
|----------------------||---------------------||
|----------------------||---------------------||(these 3 repeat thru the 
|-10-9---5-7-----------||-----x-x-x-----------||      Entire song)
|--8-7---3-5-----------||-----x-x-x-----------||
            
Submit corrections

↑ Back to top | Tablatures and chords for acoustic guitar and electric guitar, ukulele, drums are parodies/interpretations of the original songs. You may use it for private study, scholarship, research or language learning purposes only