» » »

Twin Peaks - Sloop Jay D Tabs

Artists:  A B C D E F G H I J K L M N O P Q R S T U V W X Y Z # 

Sloop Jay D Tabs

(ver. 2) Click to play this song!
Twin Peaks
 Rating:
4.3/5 (12 votes)

 Sloop Jay D lessons Tabs too difficult? Try these video lessons and learn fast
 
                [Intro]                                         [Intro 2]
e|-------------------------------------------|  e|--------------------------------------------|
B|-------------------------------------------|  B|--------------------------------------------|
G|-------------------------------------------|  G|--------------------------------------------|
D|------9--------10-------11-------9---------|  D|------------4-6b7----------------4-6b7------|
A|--9h11-11--9h11-11--9h11-11--9h11-11-10-9--|  A|-77-4-77-44-77---4577-44-77-44-77-----456---|
E|-------------------------------------------|  E|--------------------------------------------| x2

[Verse Part 1]                        [Verse Part 2]
 "You've got feeling so lucky"         
e|---------------------------------|  e|-------------------------------------------|
B|-------------55------------------|  B|-------------55----------------------------|
G|-----1---1------88--66--11--88---|  G|-----1---1------88--66--22--77------1616---|
D|------------6--------------------|  D|------------6--------------------16--------|
A|----2---3--4---9---7---4---9-----|  A|----2---3--4---9---7---4---6----14---------|
E|---0---4------7---5---2---7------|  E|---0---4------7---5---2---5----------------| x2

[Chorus Part 1]                                 [Chorus Part 2]
 "BAA BAA BAA"                                   "BAA BAA BAA BADABABA"
e|-------------------------------------------|  e|--------------------------------------------|
B|-------------------------------------------|  B|--------------------------------------------|
G|-------------------------------------------|  G|--------------------------------------------|
D|------9--------10-------11-------9---------|  D|------------4-6b7----------------4-6b7------|
A|--9h11-11--9h11-11--9h11-11--9h11-11-10-9--|  A|-77-4-77-44-77---4577-44-77-44-77-----456---|
E|-------------------------------------------|  E|--------------------------------------------| x2

[Verse Part 1]                        [Verse Part 2]
"I'm such a loser"                    
e|---------------------------------|  e|-------------------------------------------|
B|-------------55------------------|  B|-------------55----------------------------|
G|-----1---1-------88--66--11--88--|  G|-----1---1------88--66--22--77------1616---|
D|------------6--------------------|  D|------------6--------------------16--------|
A|----2---3--4----9---7---2---9----|  A|----2---3--4---9---7---4---6----14---------|
E|---0---4-------7---5---0---7-----|  E|---0---4------7---5---2---5----------------| x2

[Chorus Part 1]                                 [Chorus Part 2]
 "BAA BAA BAA"                                   "BAA BAA BAA BADABABA"
e|-------------------------------------------|  e|--------------------------------------------|
B|-------------------------------------------|  B|--------------------------------------------|
G|-------------------------------------------|  G|--------------------------------------------|
D|------9--------10-------11-------9---------|  D|------------4-6b7----------------4-6b7------|
A|--9h11-11--9h11-11--9h11-11--9h11-11-10-9--|  A|-77-4-77-44-77---4577-44-77-44-77-----456---|
E|-------------------------------------------|  E|--------------------------------------------|

[Chorus Variation Part 1]                       [Chorus Variation Part 2]
 "BAA BAA BAA"                                   "Ooooo"
e|-------------------------------------------|  e|----------------------------------------------|
B|-------------------------------------------|  B|----------------------------------------------|
G|-------------------------------------------|  G|----------------------------------------------|
D|------9--------10-------11-------9---------|  D|------------------11-\--2---------------------|
A|--9h11-11--9h11-11--9h11-11--9h11-11-10-9--|  A|-----11-10-9-11---11-\--2---------------------|
E|-------------------------------------------|  E|-9-12-------9-----0--\--0---------------------|

[Interlude]                                     
"And I know it's wrong"                         
  PM                                           
e|-------------------------------------------| 
B|-------------------------------------------| 
G|--------------------------------15---------|  
D|--------------------------------14---------|  
A|-2-------6-------11-----9-------14---------| 
E|-0(x16)--4(x16)--9(x8)--7(x8)---12---------|

[Final Verse Part 1]
"And I knooooow"
e|-----------------------------------------------------------------------|
B|-------12--------13--------14--------12--------------------------------|
G|--11h13--13-11h13--13-11h13--13-11h13--131211-----131211--13-----------|
D|---------------------------------------------11-14------11---11-\--2---|
A|-------------------------------------------------------------11-\--2---|
E|-------------------------------------------------------------0--\--0---|

[Final Verse Part 2]
e|---------------------------------------------------------------------------|
B|-------12--------13--------14--------12------------------------------------|
G|--11h13--13-11h13--13-11h13--13-11h13--131211-----1311h14p11--13-----------|
D|---------------------------------------------11-14----------11---11-\--2---|
A|-----------------------------------------------------------------11-\--2---|
E|-----------------------------------------------------------------0--\--0---|

[Outro]                                                           
e|--------------------------------------------------------------|
B|--------------------------------------------------------------|
G|--------------------------------------------------------------|
D|------9--------10-------11-------9----------------------------|
A|--9h11-11--9h11-11--9h11-11--9h11-11-10-9------11-10-9br--11--|
E|--------------------------------------------9-12--------9-----|

            
Submit corrections


        Sloop Jay D lessons Hard to play? Try these video lessons and learn fast Sloop Jay D lessons
        
↑ Back to top | Tablatures and chords for acoustic guitar and electric guitar, ukulele, drums are parodies/interpretations of the original songs. You may use it for private study, scholarship, research or language learning purposes only