» » »

Twenty One Pilots - Isle Of Flightless Birds Ukulele

Artists:  A B C D E F G H I J K L M N O P Q R S T U V W X Y Z # 

Isle Of Flightless Birds Ukulele

(ver. 1) Click to play this song!
Twenty One Pilots
 Rating:
4.3/5 (26 votes)


 Isle Of Flightless Birds  lessons Tabs too difficult? Try these video lessons and learn fast
 
                [Intro]

A:2---2 0----0----0----2-0--0----3---2-|
E:-3-----3 2-2-2 3-3 2-3--3-2-0--0---2-|
C:--4--------2---------2----2--2-0-0-3-|
G:---0-------2---------0----2----0---4-|

A:2---2 0----0----0-2-3-2-0--0-----3---2---|
E:-3-----3 2-2-2 3------3--2-2--0--0---2-0-|
C:--4--------2----------2----2---2-0-0-3---|
G:---0-------2----------0----2-----0---4---|

A:--------0-2-0-2-3-5-6-9-7-|
E:2-3-2-3-------------------|
C:--------------------------|
G:--------------------------|            
Submit corrections



        Isle Of Flightless Birds  lessons Hard to play? Try these video lessons and learn fast Isle Of Flightless Birds  lessons
        
↑ Back to top | Tablatures and chords for acoustic guitar and electric guitar, ukulele, drums are parodies/interpretations of the original songs. You may use it for private study, scholarship, research or language learning purposes only