» » »

Twenty One Pilots - Cut My Lip Bass

Artists:  A B C D E F G H I J K L M N O P Q R S T U V W X Y Z # 

Cut My Lip Bass

(ver. 1) Click to play this song!
Twenty One Pilots
 Rating:
4.4/5 (14 votes)

 Cut My Lip lessons Tabs too difficult? Try these video lessons and learn fast
 
                Verse and Chorus Riff
(This main riff stays the same during trhe whole thing)The slides might not be necessary but I thought they 
sound good.

G|---------------------------------------------------------------------------|
D|-------------4--\2---------------------------4----------/6-----------------|
A|---------------------------------2---------------2-------------------------|
E|-2-------/5----------------------------------------------------------------|
   1 + 2 + 3 + 4 + 1 + 2 + 3 + 4 + 1 + 2 + 3 + 4 + 1 + 2 + 3 + 4 +


Outro part
(Play until fade out)

G|---------------------------------------------------------------------------|
D|-------------------------------------------------------------222-----------|
A|-------------------------------0222-------------0222-------24--------------|
E|-222---------0222000---------00----------------0---------------------------|
   1 + 2 + 3 + 4 + 1 + 2 + 3 + 4 + 1 + 2 + 3 + 4 + 1 + 2 + 3 + 4 +

            
Submit corrections


        Cut My Lip lessons Hard to play? Try these video lessons and learn fast Cut My Lip lessons
        
↑ Back to top | Tablatures and chords for acoustic guitar and electric guitar, ukulele, drums are parodies/interpretations of the original songs. You may use it for private study, scholarship, research or language learning purposes only