» » »

Twang - Either Way Tabs

Artists:  A B C D E F G H I J K L M N O P Q R S T U V W X Y Z # 

Either Way Tabs

(ver. 3) Click to play this song!
Twang
 Rating:
4/5 (5 votes)

 Either Way lessons Tabs too difficult? Try these video lessons and learn fast
 
                Band: The Twang

This isnt full version but it is all i have so far, I think it's a brilliant song and 
trying to work out some more songs, please post a tab if you know it.

Tuning: EADGBe

INTRO

e|-----------------------------------------------------7----|
B|--------------------------------------------------------8-|
G|--------------------7--7-----------------------7--7-------|
D|--0--7--0--7--4--5-----------0--7--0--7--4--5-------------|
A|----------------------------------------------------------|
E|----------------------------------------------------------|

e|-------------------------------------------------------------|
B|--------------------------------------------------(8)-(7)----|
G|--------------------7--7-----------------------7-------------|
D|--0--7--0--7--4--5-----------0--7--0--7--4--5-------------(9)|
A|-------------------------------------------------------------|
E|-------------------------------------------------------------|
(The bits in brackets are played on piano i think, but they sound good on guitar too)

Then this is played, let's call it Riff 1:
e|----------------------------------|
B|------3-----3---3-----3-----3---3-|
G|----2-----2---2-----0-----0---0---|
D|--0-----0---------0-----0---------|
A|----------------------------------|
E|----------------------------------|

This is repeated I don;t know how many times and then it goes back to the intro riff 
the verse. Then it goes back to riff 1 in the chorus, then the intro riff in the second 
Then riff 1 in the chorus and there's this bit after the second chorus, we'll call it riff 2:

(i really do feel so much better...)
e|-----------------|
B|----4-----4---4--|
G|--5-----5---5----|    play x8
D|-----------------|
A|-----------------|
E|-----------------|

then back to riff 1 for chorus 3 and then riff 2

I haven't worked out the outro bit yet but there you go!
Sorry it's a bit all over the place I haven't really done it properly, you'll have to 
out how many times each riff is played yourself but it's my first try so enjoy!!!  (:
            
Submit corrections


        Either Way lessons Hard to play? Try these video lessons and learn fast Either Way lessons
        
↑ Back to top | Tablatures and chords for acoustic guitar and electric guitar, ukulele, drums are parodies/interpretations of the original songs. You may use it for private study, scholarship, research or language learning purposes only